Rambler's Top100
Главная / Архив / W / Williams / Тема к "Звездным Войнам"
Ноты, аккорды и табулатуры для гитары
Автор Произведение Ноты (страницы)
Williams Тема к "Звездным Войнам" 1
Табулатуры Аккорды Послушать (midi)
Да Нет Да
Williams - Саундтрек, музыка из фильма "Звездные войны"



Табулатуры (табы)


|-------||----------------|----------------||--0-----7-----|
|-0-0-0-||-0--------0-0-0-|-0--------0-0-0-||o-0-----9-----|
|-------||----------------|----------------||--1-----9-----|
|-------||-2--1-----------|----------------||--------------|
|-------||-------4--2-----|-0--------------||o-------------|
|-------||----------------|----4--2--------||-----0-----0--|


|---------12---------|---------12---------|-------------------|-0------7-----|
|-10p9-----9-----12--|-10p9-----9-----12--|-10p9-10-7-----0-0-|--------------|
|------11--9------9--|------11--9------9--|--7------8---------|--------------|
|--------------------|--------------------|--0------------9---|--------------|
|--0-----------------|--0-----------------|------------9------|-7------------|
|----------0--0------|----------0--0------|---------7---------|----11--9--7--|


|---------12-----7--|---------12-----7--|-------------------|---------5p4-2-0-|
|-10p9--------------|-10p9--------------|-10p9-10-7-----0-0-|-2-----2---------|
|------11-----------|------11-----------|--7------8---------|-----2-----------|
|-------------------|-------------------|--0------------9---|---2-------------|
|--0------11--9--7--|--0------11--9--7--|------------9------|-2---------------|
|-------------------|-------------------|---------7---------|-----------------|


|-0-2-4-2----------|---------5p4-2-0-|-7-2-2--------|---------5p4-2-0-|
|---------2-4--0-0-|-2-----2---------|-----4----0-0-|-2-----2---------|
|-----------4------|-----2-----------|-7---4--------|-----2-----------|
|-----------4------|---2-------------|-5------------|---2-------------|
|-0----------------|-2---------------|-----2--------|-2---------------|
|------------------|-----------------|--------------|-----------------|


|-0-2-4-2------7--|-12-10-8-7--------0-|
|---------2-4-----|-----------10-8-7---|
|-----------------|--------------------|
|-----------------|--0-------------7---|
|-0---------2--4--|-------7----9-------|
|-----------------|--------------------|


 1.                     2.
|-7--7-7-7-7---------||-7--7-7-7-7--------|
|----7-7-7-7--0-0-0-o||----7-7-7-7--0-0-0-|
|----8-8-8-8---------||----8-8-8-8--------|
|----9-9-9-9---------||----9-9-9-9--------|
|----9-9-9-9--------o||----9-9-9-9--------|
|-7--7-7-7-7---------||-7--7-7-7-7--------|


|-7--------------|-7--------------|-7--------------|
|----------0-0-0-|----------0-0-0-|----------0-0-0-|
|----------------|----------------|----------------|
|----------------|----------------|----------------|
|----------------|----------------|----------------|
|-7--7--7--7-----|-7--7--7--7-----|-7--7--7--7-----|


|-7-----------10-||--10-----7-----10-|-10-----7-----13-|-13--------12-12-|
|-------------10-||o-10-----7-----10-|-10-----7-----13-|-13--------12-12-|
|----------------||------------------|-----------------|-----------------|
|----------------||------------------|-----------------|-----------------|
|----------------||o-----------------|-----------------|-----------------|
|-7--7--7--7-----||---7--7--7--7-----|--7--7--7--7-----|--7--7--7---7----|


|-10-7---------10--||-7-----------------|-0-----7-----|
|-10-7---------10-o||-7-----------0-0-0-|-0-----9-----|
|------------------||-8-----------------|-1-----9-----|
|------------------||-9--9-9-9-9--------|-------------|
|-----------------o||-9--9-9-9-9--------|-------------|
|--7---7--7--7-----||-7--7-7-7-7--------|----0-----0--|


|---------12---------|---------12---------|-------------------|-0------7-----|
|-10p9-----9-----12--|-10p9-----9-----12--|-10p9-10-7-----0-0-|--------------|
|------11--9------9--|------11--9------9--|--7------8---------|--------------|
|--------------------|--------------------|--0------------9---|--------------|
|--0-----------------|--0-----------------|------------9------|-7------------|
|----------0--0------|----------0--0------|---------7---------|----11--9--7--|


|---------12-----7--|---------12-----7--|-------------------|-0---------------|
|-10p9--------------|-10p9--------------|-10p9-10-7-----0-0-|----------0-0-0--|
|------11-----------|------11-----------|--7------8---------|-----------------|
|-------------------|-------------------|--0------------9---|-2--1------------|
|--0------11--9--7--|--0------11--9--7--|------------9------|-------4--2------|
|-------------------|-------------------|---------7---------|-----------------|


|-0--------------|-0--------*|
|----------0-0-0-|-0--------*|
|----------------|-1--------*|
|----------------|-2--------*|
|----------2-----|-2--------*|
|-0--4--2--------|-0--------*|

www.vse-noti.narod.ru