Rambler's Top100
Главная / Архив / В / Вивальди / Летняя гроза (шторм)
Ноты, аккорды и табулатуры для гитары
Автор Произведение Ноты (страницы)
Вивальди Летняя гроза (шторм) 1 2 3 4 5
Табулатуры Аккорды Послушать (midi)
Да Нет Да
Примечание: из репертуара - Виктор Зинчук, Ванесса Мей (Vanessa Mae).
Вивальди - Летняя гроза (шторм) / Vivaldi - Presto "Summer Storm"



Табулатуры (табы)

|-------------------------|-------------------------|
|-------------------------|-------------------------|
|-0-----------------------|-------------------------|
|-------------------------|-3-----------------------|
|-------------------------|-------------------------|
|---3-3-3-3-3-3-3-3-3-3-3-|---3-3-3-3-3-3-3-3-3-3-3-|


|---------------------------|
|---------------------------|
|---------------------------|
|-1-------------------------|
|---------------------------|
|---3-3-3-3-3-3-3-3-3-3-3---|


|--------------------|-------|-------------------------|
|--------------------|-------|-3-----------------------|
|--------------------|-------|-------------------------|
|-0------------------|-------|---0-0-0-0-0-0-0-0-0-0-0-|
|--------------------|-------|-------------------------|
|---3-3-3-3-3-3-3-3--|-------|-------------------------|


|-------------------------|-------------------------|---------------------||
|-1-----------------------|-------------------------|---------------------||
|-------------------------|-3-----------------------|-2-------------------||
|---0-0-0-0-0-0-0-0-0-0-0-|---0-0-0-0-0-0-0-0-0-0-0-|---0-0-0-0-0-0-0-0---||
|-------------------------|-------------------------|---------------------||
|-------------------------|-------------------------|---------------------||


  
|------------------------|-------------------------|---3-1--------------------|
|--3-1-------------------|---3-1-------------------|-------4-3-1--------------|
|------3-2-0-------------|-------3-2-0-------------|-------------3-2-0--------|
|------------4-2-0-------|-------------4-2-0-------|-------------------3-1-0--|
|------------------3-1-0-|-------------------3-1-0-|--------------------------|
|------------------------|-3-----------------------|-3------------------------|



|---3-1-------------------|---6-5-------------------|---6-5--------------------|
|-------4-3-1-------------|-------8-6---------------|-------8-6----------------|
|-------------3-2-0-------|-----------8-7-5---------|-----------8-7-5----------|
|-------------------3-1-0-|-----------------8-7-5---|-----------------8-7-5----|
|-3-----------------------|-3---------------------8-|-6---------------------8--|
|-------------------------|-------------------------|--------------------------|



|---10-8-6-------------------|----10-8-6-------------------|
|----------10-8-7------------|-----------10-8-7------------|
|-----------------9-7--------|------------------9-7--------|
|---------------------10-8-7-|----------------------10-8-7-|
|-6--------------------------|-10--------------------------|
|----------------------------|-----------------------------|



|----10-8-6--------------------|
|-----------10-8-7-------------|
|------------------9-7---------|
|----------------------10-8-7--|
|-10---------------------------|
|------------------------------|



|----10-8-6-------------------|
|-----------10-8-7------------|
|------------------9-7--------|
|----------------------10-8-7-|
|-10--------------------------|
|-----------------------------|



|-------------------------|-----------0-2-3-5--------|
|-3-------3-------3-------|-------1-3----------------|
|---0-0-0---0-0-0---0-0-0-|---2-3--------------------|
|-------------------------|-0------------------------|
|-------------------------|--------------------------|
|-------------------------|--------------------------|



|-----------0-2-3-5-------|-----------2-3-5-6-------|
|-------1-3---------------|-----1-3-4---------------|
|---2-3-------------------|---3---------------------|
|-------------------------|-------------------------|
|-------------------------|-------------------------|
|-------------------------|-------------------------|



|-----0-2-3-5-6-8-10--------|
|---3-----------------------|
|---------------------------|
|---------------------------|
|---------------------------|
|---------------------------|



|-----0-2-3-5-6-8-10-------|
|---3----------------------|
|--------------------------|
|--------------------------|
|--------------------------|
|--------------------------|



|-----------0-2-3-5-------|-----------2-3-5-6--------|
|-------1-3---------------|-----2-3-4----------------|
|---2-3-------------------|---3----------------------|
|-------------------------|--------------------------|
|-------------------------|--------------------------|
|-------------------------|--------------------------|



  
|-----0-2-3-5-6-8-10-------|-6-------6-------6-------|
|---3----------------------|---8-------8-------8-----|
|--------------------------|-----7-------7-------7---|
|--------------------------|-------8-------8-------8-|
|--------------------------|-------------------------|
|--------------------------|-------------------------|



|-----------------------------------|
|-----------------------------------|
|-7----------7----------7-----------|
|----8----------8----------8--------|
|------10---------10---------10-----|
|---------10---------10---------10--|



|-------------------------|-------------------------|--------------------------|
|-------------------------|---0---0---0---0---0---0-|---1---1---1---1---1---1--|
|-0-------0-------0-------|-0---0---0---0---0---0---|-0---0---0---0---0---0----|
|---0-------0-------0-----|-------------------------|--------------------------|
|-----1-------1-------1---|-------------------------|--------------------------|
|-------3-------3-------3-|-------------------------|--------------------------|


|-------------------------|-------------------------|--------------------------|
|---2---2---2---2---2---2-|---3---3---3---3---3---3-|---3---3---3---3---3---3--|
|-0---0---0---0---0---0---|-2---2---2---2---2---2---|-2---2---2---2---2---2----|
|-------------------------|-------------------------|--------------------------|
|-------------------------|-------------------------|--------------------------|
|-------------------------|-------------------------|--------------------------|



|-------------------------|-------------------------|---0-1-3-5---0-1-3-5-7-9--|
|---2---2---2---2---2---2-|-3-----------0-2-3---0-2-|-3---------3--------------|
|-2---2---2---2---2---2---|---------0-2-------2-----|--------------------------|
|-------------------------|---0-2-3-----------------|--------------------------|
|-------------------------|-------------------------|--------------------------|
|-------------------------|-------------------------|--------------------------|



|-10---------------12-12-17-|-17---------15---------13---------|
|------------14-14----------|----------------------------------|
|------14-14----------------|----14---14----14---14----14---14-|
|---------------------------|-------0----------0----------0----|
|---------------------------|----------------------------------|
|---------------------------|----------------------------------|



|-12---------13---------15----------|
|-----------------------------------|
|----14---14----14---14----14---14--|
|-------0----------0----------0-----|
|-----------------------------------|
|-----------------------------------|



|-17---------15---------13---------|
|----------------------------------|
|----14---14----14---14----14---14-|
|-------0----------0----------0----|
|----------------------------------|
|----------------------------------|



|-12-----------5-5-10-|-10-------8-------6--------|
|----------6-6--------|---------------------------|
|-14---7-7------------|----7---7---7---7---7---7--|
|--0------------------|------0-------0-------0----|
|---------------------|---------------------------|
|---------------------|---------------------------|



|-5-------6-------9-------|-10-------8-------6-------|
|-------------------------|--------------------------|
|---7---7---7---7---7---7-|----7---7---7---7---7---7-|
|-----0-------0-------0---|------0-------0-------0---|
|-------------------------|--------------------------|
|-------------------------|--------------------------|



|-5---17-17-15-15-13-13-12--||
|---------------------------||
|-7-------------------------||
|-0-------------------------||
|---------------------------||
|---------------------------||



  
|-12-10-10-8-8-6-6-5-5-3-3-1-|
|----------------------------|
|----------------------------|
|----------------------------|
|----------------------------|
|----------------------------|


|-1-0-0-------------------|--------------------------|
|-------3-3-1-1-----------|--------------------------|
|---------------3-3-2-2-1-|-2---1---2---1---2--------|
|-------------------------|---0---0---0---0---0-3-0--|
|-------------------------|--------------------------|
|-------------------------|--------------------------|


|-------------------------|-------------------------|--------------------------|
|-------------------------|-------------------------|--------------------------|
|-------------------------|-------------------------|--------------------------|
|-5-0-2-0-3-0---0---0---0-|---0---0---0---0---0---0-|---0---0---0---0---0---0--|
|-------------5---7---4---|-5---4---5---4---5---4---|-5---4---5---4---5---4----|
|-------------------------|-------------------------|--------------------------|



|-5---------5-|-6---------6-|-6---------6-|-5---------5-|-5---------5--||
|---------6---|---------8---|-------5-8---|---------6---|---------6----||
|-------7-----|-------7-----|-------------|-------5-----|-------7------||
|---0-0-------|---0-0-------|-------------|---3-3-------|---0-0--------||
|-------------|-------------|---7-7-------|-------------|--------------||
|-------------|-------------|-------------|-------------|--------------||



|-3---------3-|-3---------3-|-3---------3-|
|---------4---|---------4---|---------3---|
|-------3-----|-------5-----|-------4-----|
|---1-1-------|-------------|---0-0-------|
|-------------|---3-3-------|-------------|
|-------------|-------------|-------------|


|-3---------1-|--------------------------|
|---------3---|-4---------0-1-3-4--------|
|-------4-----|-------0-1----------------|
|---0-0-------|---1-3--------------------|
|-------------|--------------------------|
|-------------|--------------------------|



|-------------------------|-------------------------|
|-----------0-1-3-4-------|-----------0-1-3-4-------|
|-------0-1---------------|-------0-1---------------|
|---1-3-------------------|---1-3-------------------|
|-------------------------|-------------------------|
|-------------------------|-------------------------|



|--------------------------||
|---1---1---1---1---1---1--||
|-----3-------3-------3----||
|-1-------1-------1--------||
|--------------------------||
|--------------------------||




|-------------------------|-------------------------|--------------------------|
|---1---1---1---1---1---1-|---1-0-1---1-0-1---0---0-|-1------------------------|
|-----3-------3-------3---|-0-------0-------0---2---|--------------------------|
|-3-------3-------3-------|-------------------------|--------------------------|
|-------------------------|-------------------------|---3-3-3-3-3-3-3-3-3-3-3--|
|-------------------------|-------------------------|--------------------------|


|-------------------------|-------------------------|---------------------||
|-------------------------|-------------------------|---------------------||
|-3-----------------------|-1-----------------------|-0-------------------||
|-------------------------|-------------------------|---------------------||
|---3-3-3-3-3-3-3-3-3-3-3-|---3-3-3-3-3-3-3-3-3-3-3-|---3-3-3-3-3-3-3-3---||
|-------------------------|-------------------------|---------------------||


  
|-3-----------------------|-3-----------------------|-3------------------------|
|-4---4---4---4---4---4---|-3---3---3---3---3---3---|-4---4---4---4---4---4----|
|---5---5---5---5---5---5-|---4---4---4---4---4---4-|---5---5---5---5---5---5--|
|-------------------------|-------------------------|--------------------------|
|-------------------------|-------------------------|--------------------------|
|-------------------------|-------------------------|--------------------------|



|-1-----------------------|-3-----------------------|
|-3---3---3---3---3---3---|-4---4---4---4---4---4---|
|---3---3---3---3---3---3-|---3---3---3---3---3---3-|
|-------------------------|-------------------------|
|-------------------------|-------------------------|
|-------------------------|-------------------------|


|---3-3-4-4-6-6-8-8-10-10-11--||
|-----------------------------||
|-8---------------------------||
|-----------------------------||
|-----------------------------||
|-----------------------------||




|-11----------11----------11----------|
|----11----------11----------11-------|
|-------12----------12----------12----|
|----------13----------13----------13-|
|-------------------------------------|
|-------------------------------------|


|---4-4-6-6-8-8-10-10-11-11-13-|-13----------13----------13-----------|
|-6----------------------------|----13----------13----------13--------|
|------------------------------|-------14----------14----------14-----|
|------------------------------|----------15----------15----------15--|
|------------------------------|--------------------------------------|
|------------------------------|--------------------------------------|


|---6-6-8-8-10-10-11-11-13-13-15-|
|-8------------------------------|
|--------------------------------|
|--------------------------------|
|--------------------------------|
|--------------------------------|


|-15----------15----------15----------|-11------------------------|
|----15----------15----------15-------|---------------------------|
|-------16----------16----------16----|---------------------------|
|----------17----------17----------17-|---------------------------|
|-------------------------------------|---------------------------|
|-------------------------------------|----8-8-8-8-8-8-8-8-8-8-8--|


|-------------------------|-------------------------|--------------------------|
|-------------------------|-------------------------|--------------------------|
|-1-------1-------1-------|-------------------------|-0-------0-------0--------|
|-------------------------|-------------------------|--------------------------|
|---3-3-3---3-3-3---3-3-3-|-2-2-2-2-2-2-2-2-2-2-2-2-|---1-1-1---1-1-1---1-1-1--|
|-------------------------|-------------------------|--------------------------|


|-------------------------|-------------------------|--------------------------|
|-------------------------|-------------------------|--------------------------|
|-------------------------|-------------------------|---0-0-0-0-0-0-0-0-0-0-0--|
|-------------------------|-3-------3-------3-------|--------------------------|
|-0-0-0-0-0-0-0-0-0-0-0-0-|-------------------------|--------------------------|
|-------------------------|---4-4-4---4-4-4---4-4-4-|-3------------------------|


|-------------------------|-------------------------|--------------------------|
|-4-------4-------4-------|-------------------------|-3-------3-------3--------|
|-------------------------|-------------------------|--------------------------|
|---5-5-5---5-5-5---5-5-5-|-4-4-4-4-4-4-4-4-4-4-4-4-|---3-3-3---3-3-3---3-3-3--|
|-------------------------|-------------------------|--------------------------|
|-------------------------|-------------------------|--------------------------|


|-------------------------|-------------------------|--------------------------|
|-------------------------|-1-------1-------1-------|--------------------------|
|-------------------------|-------------------------|-----------------2--------|
|-2-2-2-2-2-2-2-2-2-2-2-2-|---1-1-1---1-1-1---1-1-1-|---0-0-0---0-0-0---0-0-0--|
|-------------------------|-------------------------|-5-------9----------------|
|-------------------------|-------------------------|--------------------------|


|-------------------------|---------2-------3-------|
|---------1-------3-------|-4-----------------------|
|-3-----------------------|-------------------------|
|---0-0-0---0-0-0---0-0-0-|---0-0-0---0-0-0---0-0-0-|
|-------------------------|-------------------------|
|-------------------------|-------------------------|


|-5-------6-------8--------||
|--------------------------||
|--------------------------||
|---0-0-0---0-0-0---0-0-0--||
|--------------------------||
|--------------------------||



|-10-----------------------|
|----3-1-------------------|
|--------3-2-0-------------|
|--------------4-2-0-------|
|--------------------3-1-0-|
|--------------------------|



|-------------------------|---3-1--------------------|
|---3-1-------------------|-------4-3-1--------------|
|-------3-2-0-------------|-------------3-2-0--------|
|-------------4-2-0-------|-------------------3-1-0--|
|-------------------3-1-0-|--------------------------|
|-3-----------------------|-3------------------------|



|---3-1-------------------|---6-5-------------------|---6-5--------------------|
|-------4-3-1-------------|-------8-6---------------|-------8-6----------------|
|-------------3-2-0-------|-----------8-7-5---------|-----------8-7-5----------|
|-------------------3-1-0-|-----------------8-7-5---|-----------------8-7-5----|
|-3-----------------------|-3---------------------8-|-6---------------------8--|
|-------------------------|-------------------------|--------------------------|



|---10-8-6-------------------|
|----------10-8-7------------|
|-----------------9-7--------|
|---------------------10-8-7-|
|-6--------------------------|
|----------------------------|



|----10-8-6-------------------|-----------------2--------||
|-----------10-8-7------------|-3-------4----------------||
|------------------9-7--------|---0---0---0---0---0---0--||
|----------------------10-8-7-|--------------------------||
|-10--------------------------|--------------------------||
|-----------------------------|-----3-------3-------3----||



|-3-------1---------------|-----------------2-------|
|-----------------4-------|-3-------4---------------|
|---0---0---0---0---0---0-|---0---0---0---0---0---0-|
|-------------------------|-------------------------|
|-------------------------|-------------------------|
|-----3-------3-------3---|-----3-------3-------3---|



|-3-------1----------------||
|-----------------4--------||
|---0---0---0---0---0---0--||
|--------------------------||
|--------------------------||
|-----3-------3-------3----||



|-------------------5-6-5-|-3-1---------------------|--------------------------|
|-3-------------7-8-------|-----4-3-1---------------|--------------------------|
|-0-------5-7-8-----------|-----------3-2-0---------|--------------------------|
|---5-7-8-----------------|-----------------4-2-0---|--------------------------|
|-------------------------|-----------------------3-|-1---1---1---1---1---1----|
|-3-----------------------|-------------------------|---3---3---3---3---3---3--|


|-------------------------|---------1-0-3-2-5-3-6-5-|
|-------------------------|-3---4-3-----------------|
|---------0---2-0-3-2-5-3-|---5---------------------|
|-3-1-4-2---4-------------|-------------------------|
|-------------------------|-------------------------|
|-------------------------|-------------------------|


|--------------------------||
|--------------------------||
|---------0---2-0-3-2-5-3--||
|-3-1-4-2---4--------------||
|--------------------------||
|--------------------------||


  
|---------1-0-3-2-5-3-6-5-|-------------------------|
|-3---4-3-----------------|-------------------------|
|---5---------------------|-------------------------|
|-------------------------|-------------------------|
|-------------------------|-5-5-5-5-5-5-5-5-5-5-5-5-|
|-------------------------|-------------------------|



|--------------------------||
|--------------------------||
|-0-------0-------0--------||
|---0-------0-------0------||
|-----1-------1-------1----||
|-------3-------3-------3--||



|-------------------------|-------------------------|--------------------------|
|-------------------------|-------------------------|--------------------------|
|-0-0-0-0-0-0-0-0-0-0-0-0-|-------------------------|-0-------0-------0--------|
|-------------------------|-4-4-4-4-4-4-4-4-4-4-4-4-|---0-------0-------0------|
|-------------------------|-------------------------|-----1-------1-------1----|
|-------------------------|-------------------------|-------3-------3-------3--|


|-------------------------|-------------------------|--------------------------|
|-------------------------|-------------------------|-----------------3-3-3-3--|
|-0-0-0-0-0-0-0-0-0-0-0-0-|-------------------------|-0-0-0-0-3-3-3-3----------|
|-------------------------|-4-4-4-4-4-4-4-4-4-4-4-4-|--------------------------|
|-------------------------|-------------------------|--------------------------|
|-------------------------|-------------------------|--------------------------|


|-3-3-3-3-6-6-6-6-3-3-3-3-|-------------------------|------*|
|-------------------------|-3-3-3-3-----------------|------*|
|-------------------------|---------3-3-3-3-0-0-0-0-|------*|
|-------------------------|-------------------------|------*|
|-------------------------|-------------------------|------*|
|-------------------------|-------------------------|-3----*|

www.vse-noti.narod.ru