Rambler's Top100
Главная / Архив / В / Вила-Лобос / Этюд №1
Ноты, аккорды и табулатуры для гитары
Автор Произведение Ноты (страницы)
Вила-Лобос Этюд №1 1 2 3
Табулатуры Аккорды Послушать (midi)
Да Нет Да
Вила-Лобос - Этюд №1 / Villa-Lobos - Etude №1



Табулатуры (табы)

    Em                                      F#m11b5/E
   4/4
    Gtr I
||----------------0---0--------------||-||----------------0---0--------------||
||o-----------0-----0-----0---------o||-||o-----------0-----0-----0---------o||
||--------0-----0-------0-----0------||-||--------2-----2-------2-----2------||
||----2-----2---------------2-----2--||-||----4-----4---------------4-----4--||
||o-----2-----------------------2---o||-||o-----3-----------------------3---o||
||--0--------------------------------||-||--0--------------------------------||


    Em                                      B7/F#
||----------------0---0--------------||-||----------------2---2--------------||
||o-----------0-----0-----0---------o||-||o-----------0-----0-----0---------o||
||--------0-----0-------0-----0------||-||--------2-----2-------2-----2------||
||----2-----2---------------2-----2--||-||----1-----1---------------1-----1--||
||o-----2-----------------------2---o||-||o-----0-----------------------0---o||
||--0--------------------------------||-||--2--------------------------------||


    Em/G                                    E/Ab
||----------------0---0--------------||-||----------------0---0--------------||
||o-----------0-----0-----0---------o||-||o-----------0-----0-----0---------o||
||--------0-----0-------0-----0------||-||--------1-----1-------1-----1------||
||----2-----2---------------2-----2--||-||----2-----2---------------2-----2--||
||o-----2-----------------------2---o||-||o-----2-----------------------2---o||
||--3--------------------------------||-||--4--------------------------------||


    Am                                      A7sus4/Bb
||----------------5---5--------------||-||----------------5---5--------------||
||o-----------5-----5-----5---------o||-||o-----------5-----5-----5---------o||
||--------5-----5-------5-----5------||-||--------7-----7-------7-----7------||
||----7-----7---------------7-----7--||-||----5-----5---------------5-----5--||
||o-----7-----------------------7---o||-||o-----7-----------------------7---o||
||--5--------------------------------||-||--6--------------------------------||


    Em/B                                    Esus2/B
||----------------7---7--------------||-||----------------7---7--------------||
||o-----------8-----8-----8---------o||-||o-----------7-----7-----7---------o||
||--------9-----9-------9-----9------||-||--------9-----9-------9-----9------||
||----9-----9---------------9-----9--||-||----9-----9---------------9-----9--||
||o-----7-----------------------7---o||-||o-----7-----------------------7---o||
||--7--------------------------------||-||--7--------------------------------||


    B7
||----------------7---7--------------||-|
||o-----------7-----7-----7---------o||-|
||--------8-----8-------8-----8------||-|
||----7-----7---------------7-----7--||-|
||o-----9-----------------------9---o||-|
||--7--------------------------------||-|


    D°9/E
||----------------------0----0--------------------||
||o---------------12------12------12-------------o||
||----------10-------10--------10-------10--------||
||----12-------12--------------------12-------12--||
||o------11--------------------------------11----o||
||--0---------------------------------------------||


    C#°7/E
||--------------------0----0------------------||
||o--------------11-----11-----11------------o||
||----------9-------9--------9-------9--------||
||----11------11------------------11------11--||
||o------10----------------------------10----o||
||--0-----------------------------------------||


      C°7/E
|-||-------------------0----0-----------------||
|-||o-------------10-----10-----10-----------o||
|-||---------8-------8--------8-------8-------||
|-||----10-----10------------------10-----10--||
|-||o------9----------------------------9----o||
|-||--0---------------------------------------||


    B°7/E                                   Bb°7/E
||----------------0---0--------------||-||----------------0---0--------------||
||o-----------9-----9-----9---------o||-||o-----------8-----8-----8---------o||
||--------7-----7-------7-----7------||-||--------6-----6-------6-----6------||
||----9-----9---------------9-----9--||-||----8-----8---------------8-----8--||
||o-----8-----------------------8---o||-||o-----7-----------------------7---o||
||--0--------------------------------||-||--0--------------------------------||


    A°7/E                                   G#°7/E
||----------------0---0--------------||-||----------------0---0--------------||
||o-----------7-----7-----7---------o||-||o-----------6-----6-----6---------o||
||--------5-----5-------5-----5------||-||--------4-----4-------4-----4------||
||----7-----7---------------7-----7--||-||----6-----6---------------6-----6--||
||o-----6-----------------------6---o||-||o-----5-----------------------5---o||
||--0--------------------------------||-||--0--------------------------------||


    G°7/E                                   F#°7/E
||----------------0---0--------------||-||----------------0---0--------------||
||o-----------5-----5-----5---------o||-||o-----------4-----4-----4---------o||
||--------3-----3-------3-----3------||-||--------2-----2-------2-----2------||
||----5-----5---------------5-----5--||-||----4-----4---------------4-----4--||
||o-----4-----------------------4---o||-||o-----3-----------------------3---o||
||--0--------------------------------||-||--0--------------------------------||


    F°7/E                                   E°7
||----------------0---0--------------||-||----------------0---0--------------||
||o-----------3-----3-----3---------o||-||o-----------2-----2-----2---------o||
||--------1-----1-------1-----1------||-||--------0-----0-------0-----0------||
||----3-----3---------------3-----3--||-||----2-----2---------------2-----2--||
||o-----2-----------------------2---o||-||o-----1-----------------------1---o||
||--0--------------------------------||-||--0--------------------------------||


  Em                                      N.C.
|---------------0-------7---12-11h12-|--------------------------------------|
|-----------0-----0-8-----8----------|-11h12--------------------------------|
|-------0-----0-------9--------------|-------11h12-8h9----------------------|
|---2-----2--------------------------|-----------------8h9------------------|
|-----2------------------------------|---------------------9h10-6h7---------|
|-0----------------------------------|------------------------------6h7-2h3-|


  F#7
|---------------2---2-------------|---------------2---2-------------|
|-----------2-----2-----2---------|-----------2-----2-----2---------|
|-------3-----3-------3-----3-----|-------3-----3-------3-----3-----|
|---2-----2---------------2-----2-|---2-----2---------------2-----2-|
|-----4-----------------------4---|-----4-----------------------4---|
|-2-------------------------------|-2-------------------------------|


    Em/G                                    B7
||----------------0---0--------------||-||----------------7---7--------------||
||o-----------0-----0-----0---------o||-||o-----------7-----7-----7---------o||
||--------0-----0-------0-----0------||-||--------8-----8-------8-----8------||
||----2-----2---------------2-----2--||-||----7-----7---------------7-----7--||
||o-----2-----------------------2---o||-||o-----9-----------------------9---o||
||--3--------------------------------||-||--7--------------------------------||


    Em                                      F#m11b5/E
||----------------0---0--------------||-||----------------0---0--------------||
||o-----------0-----0-----0---------o||-||o-----------0-----0-----0---------o||
||--------0-----0-------0-----0------||-||--------2-----2-------2-----2------||
||----2-----2---------------2-----2--||-||----4-----4---------------4-----4--||
||o-----2-----------------------2---o||-||o-----3-----------------------3---o||
||--0--------------------------------||-||--0--------------------------------||


                  H.=H
  Em
|---------------0----------------------<12>------<7>-|
|-----------0-----0----------<12>-----------<12>-----|
|-------0-----0-----<12>----------<12>---------------|
|---2-----2------------------------------------------|
|-----2------------------<7>-------------------------|
|-0--------------------------------------------------|


                                   Q=60
                                   Am7                      E
|-----<5>-(<5>)-(<5>)-(<5>)------|-----------------12-----|-------------<7>----*|
|--------------------------------|-------------8---(8)----|----------5--(5)----*|
|-<5>----------------------------|--------9---(9)--(9)----|------4--(4)-(4)----*|
|--------------------------------|---10-(10)-(10)-(10)----|---6-(6)-(6)-(6)----*|
|--------------------------------|-0----------------------|--------------------*|
|--------------------------------|------------------------|-0------------------*|


www.vse-noti.narod.ru