Rambler's Top100
Главная / Архив / Num / 2pac / Changes
Ноты, аккорды и табулатуры для гитары
Автор Произведение Ноты (страницы)
2pac Changes 1
Табулатуры Аккорды Послушать (midi)
Да Нет Да
2pac (Tupac Shakur) - Changes



Табулатуры (табы)

           Am   Am   Em                                              
E||---------0----0----0-|-----------------------|-----------------------|
B||---------1----1----0-|-----------------------|--3---0-0--------------|
G||---------2----2----0-|------------2--0--2----|----------------2--0---|
D||---------------------|-----------------------|-----------------------|
A||---------------------|-----------------------|-----------------------|
E||---------------------|-----------------------|-----------------------|


                                                 
|------------------------|-----------------------|
|----------------0--1----|---0-0-----------------|
|-----------0-2----------|--------2-0---0--------|
|--2--0------------------|-----------------------|
|------------------------|-----------------------|
|------------------------|-----------------------|


                                                                 
|--------------------0---8-10---0---|--8-10-12-15-22-------------|
|---------------1--3---8----------8-|----------------------------|
|-------------0---------------7-----|----------------------------|
|---------0-2-----------------------|----------------------------|
|------3----------------------------|----------------------------|
|-----------------------------------|----------------------------|

1)
   Am        Em           D       C              G          D      
|---8---------7--------|--5---3---3-----------|-------------2---0------|
|---10--------8--------|--7-------1-----------|--3-------0--3-------3--|
|*--9---------9--------|--7-------0-----------|--4---2------2----------|
|*--10--------9--------|--7--------------5----|--5----------0----------|
|-------------7--------|--5-------3-----------|--5---------------------|
|----------------------|----------------------|--3---------------------|


  C                  
|-------------------5-7--|
|--1------1--------------|
|--0--------------------*|
|----------------0------*|
|--3---------------------|
|------------------------|

2)
   Am        Em           D       C              G          D         
|---8---------7--------|--5---3---3-----------|-------------2---0------|
|---10--------8--------|--7-------1-----------|--3-------0--3-------3--|
|*--9---------9--------|--7-------0-----------|--4---2------2----------|
|*--10--------9--------|--7--------------5----|--5----------0----------|
|-------------7--------|--5-------3-----------|--5---------------------|
|----------------------|----------------------|--3---------------------|


  C                    
|-------------------5-7--|
|--1------1--------------|
|--0--------------------*|
|----------------0------*|
|--3---------------------|
|------------------------|

3)
   Am        Em           D       C              G          D        
|---8---------7--------|--5---3---3-----------|-------------2---0------|
|---10--------8--------|--7-------1-----------|--3-------0--3-------3--|
|*--9---------9--------|--7-------0-----------|--4---2------2----------|
|*--10--------9--------|--7--------------5----|--5----------0----------|
|-------------7--------|--5-------3-----------|--5---------------------|
|----------------------|----------------------|--3---------------------|


  C                      
|-------------------5-7--|
|--1------1--------------|
|--0--------------------*|
|----------------0------*|
|--3---------------------|
|------------------------|

4)
   Am        Em           D       C              G          D      
|---8---------7--------|--5---3---3-----------|-------------2---0------|
|---10--------8--------|--7-------1-----------|--3-------0--3-------3--|
|*--9---------9--------|--7-------0-----------|--4---2------2----------|
|*--10--------9--------|--7--------------5----|--5----------0----------|
|-------------7--------|--5-------3-----------|--5---------------------|
|----------------------|----------------------|--3---------------------|

                         Окончание
  C                         G          D             C                 
|-------------------5-7--||-------------2---0---3--|-------------------|
|--1------1--------------||--3-------0--3----------|--1----------------|
|--0--------------------*||--4---2------2----------|--0----------------|
|----------------0------*||--5----------0----------|-------------------|
|--3---------------------||--5---------------------|--3----------------|
|------------------------||--3---------------------|-------------------|

www.vse-noti.narod.ru