Rambler's Top100
Главная / Архив / T / Tiersen / La Valse D'Amelie
Ноты, аккорды и табулатуры для гитары
Автор Произведение Ноты (страницы)
Yann Tiersen La Valse D'Amelie 1 2
Табулатуры Аккорды Послушать (midi)
Да Нет Да
Yann Tiersen - La Valse D'Amelie (Музыка из фильма "Амели")



Табулатуры (табы)

   3/4
    Gtr I   Gtr I
||--10------|-------8--|-7------|----------|-10------|------12-10-8-7-8--|
||o---------|-10-------|--------|-0----10--|---------|-10----------------|
||----------|-10-------|--------|-0--------|---------|-10----------------|
||---0------|----------|--------|----------|--0------|-------------------|
||o---------|----------|-0------|----------|---------|-------------------|
||----------|----------|--------|----------|---------|-------------------|


|-7------|----------|-8------|-------7--|-0------|
|--------|-0----10--|--------|--0-------|--------|
|--------|-0--------|--------|----------|--------|
|--------|----------|--------|-10-------|--------|
|-0------|----------|-8------|----------|--------|
|--------|----------|--------|----------|-8------|


|--------|-8------|------10-8-7-8-7-|-0------|-------||
|-0------|--------|--0--------------|--------|-0----o||
|-0------|--------|-----------------|--------|-0-----||
|--------|--------|-10--------------|--------|-------||
|-7------|-8------|-----------------|--------|-7----o||
|--------|--------|-----------------|-8------|-------||


  Q=140
|-10----------------|-10--------8-------|-7-----------|--5------5-----|
|-------10----10----|--------10------10-|-----5---5---|-------5---5---|
|----10----10----10-|-----10------10----|---5---5---5-|-----5-------5-|
|--0----------------|-(0)---------------|-------------|---------------|
|-------------------|-------------------|-0-----------|-(0)-----------|
|-------------------|-------------------|-------------|---------------|


|-10----------------|-10--------8-------|-7-----------|-5-----5--------|
|-------10----10----|--------10------10-|-----5---5---|-----5---5------|
|----10----10----10-|-----10------10----|---5---5---5-|---5-------5----|
|--0----------------|-(0)---------------|-------------|----------------|
|-------------------|-------------------|-0-----------|----------------|
|-------------------|-------------------|-------------|----------------|


|-8-----------|-8-----------|-8-----------|-0-----0-----|
|-----6---6---|-----6---6---|-----5---5---|---3-----3---|
|-------------|-------------|---0---0---0-|-----5-----5-|
|---7---7---7-|---7---7---7-|-------------|-------------|
|-8-----------|-------------|-3-----------|-3-----------|
|-------------|-------------|-------------|-------------|


|-8-----------|-8-----------|-8-----------|-0-----0--------|
|-----6---6---|-----6---6---|-----5---5---|---3-----3------|
|-------------|-------------|---0---0---0-|-----5-----5----|
|---7---7---7-|---7---7---7-|-------------|----------------|
|-8-----------|-8-----------|-3-----------|-3--------------|
|-------------|-------------|-------------|----------------|


|-10----------------|-12-------8-------|-7-----------|-5-----5-----|
|-------10----10----|-------10------10-|-----5---5---|-----5---5---|
|----10----10----10-|----10------10----|---5---5---5-|---5-------5-|
|--0----------------|------------------|-------------|-------------|
|-------------------|------------------|-0-----------|-------------|
|-------------------|------------------|-------------|-------------|


|-10----------------|-12-------8-------|-7-----------|-5-----5--------|
|-------10----10----|-------10------10-|-----5---5---|-----5---5------|
|----10----10----10-|----10------10----|---5---5---5-|---5-------5----|
|--0----------------|------------------|-------------|----------------|
|-------------------|------------------|-0-----------|----------------|
|-------------------|------------------|-------------|----------------|


|-8-----------|-8-----7-----|-3-----------|-0-----0-----|
|-----6---6---|-----6-----6-|-----5---5---|---3-----3---|
|-------------|-------------|---0---0---0-|-----5-----5-|
|---7---7---7-|---7-----7---|-------------|-------------|
|-8-----------|-------------|-3-----------|-3-----------|
|-------------|-------------|-------------|-------------|


|-8-----------|-8-----7-----|-3-----------|-0-----0--------|
|-----6---6---|-----6-----6-|-----5---5---|---3-----3------|
|-------------|-------------|---0---0---0-|-----5-----5----|
|---7---7---7-|---7-----7---|-------------|----------------|
|-8-----------|-------------|-3-----------|-3--------------|
|-------------|-------------|-------------|----------------|


|-10----------------|---12-13-12-13-12-|-5---------5-|-------7---8-|
|-10----10----10----|------10----------|---------5---|-5-------5---|
|----10----10----10-|------------------|-------5-----|---5---------|
|--0----------------|-0----------------|-----9-------|-----9-------|
|-------------------|------------------|---7---------|-------------|
|-------------------|------------------|-5-----------|-------------|


|-10----------------|---12-13-12-13-12-|-5---------5-|----------------|
|-10----10----10----|------10----------|---------5---|-5-----8--------|
|----10----10----10-|------------------|-------5-----|---5-----9------|
|--0----------------|-0----------------|-----9-------|-----9-----9----|
|-------------------|------------------|---7---------|-------7--------|
|-------------------|------------------|-5-----------|----------------|


|-5-----------|---7-8-7-8-7-|-----------0-|-------0-----|
|-----6---6---|-------------|-------1h3---|-3-1-----3-1-|
|---5---5---5-|-------------|-----0-------|-----0-------|
|-------------|-------------|---2---------|-------------|
|-8-----------|-8-----------|-3-----------|-------------|
|-------------|-------------|-------------|-------------|


|-5-----------|---7-8-7-8-7-|-----------0-|-------0--------|
|-----6---6---|-------------|-------1h3---|-3-1-----3-1----|
|---5---5---5-|-------------|-----0-------|-----0----------|
|-------------|-------------|---2---------|----------------|
|-8-----------|-8-----------|-3-----------|----------------|
|-------------|-------------|-------------|----------------|


|-10----------------|-12-------8-------|-7-----------|-----------5-|
|-------10----10----|-------10------10-|-----5---5---|---------5---|
|----10----10----10-|----10------10----|---5---5---5-|-------5-----|
|--0----------------|------------------|-------------|-----9-------|
|-------------------|------------------|-------------|---7---------|
|-------------------|------------------|-5-----------|-5-----------|


|-10----------------|---12-10-8-7-8-|-7-----------|-----------5----|
|-------10----10----|---------------|-----5---5---|---------5------|
|----10----10----10-|---------------|---5---5---5-|-------5--------|
|--0----------------|-0-------------|-------------|-----9----------|
|-------------------|---------------|-------------|---7------------|
|-------------------|---------------|-5-----------|-5--------------|


|-8-----------|-8-----7-----|-3-----------|-0-----0-----|
|-----6---6---|-----6-----6-|-----5---5---|---3-----3---|
|-------------|-------------|---0---0---0-|-----5-----5-|
|---7---7---7-|---7-----7---|-------------|-------------|
|-8-----------|-------------|-3-----------|-------------|
|-------------|-------------|-------------|-------------|


|-8-----------|----10-8-7-8-7-|-----------0-|-------0--------|
|-----6---6---|---------------|-------1h3---|-3-1-----3-1----|
|-------------|---------------|-----0-------|-----0----------|
|---7---7---7-|---------------|---2---------|----------------|
|-8-----------|-8-------------|-3-----------|----------------|
|-------------|---------------|-------------|----------------|


  Q=110
|--------|------8--|-7---|---------|--10---|
|-3------|---------|-----|-0----10-|-------|
|--------|-2-------|-----|-0-------|-------|
|-0------|---------|-----|---------|---0---|
|--------|---------|-0---|---------|-------|
|--------|---------|-----|---------|-------|


|--------12-10-8-7-8-|-7--|-----|------|----------*|
|---10---------------|----|--0--|--10--|--(10)----*|
|---10---------------|----|--0--|------|----------*|
|--------------------|----|-----|------|----------*|
|--------------------|-0--|-----|------|----------*|
|--------------------|----|-----|------|----------*|
www.vse-noti.narod.ru