Rambler's Top100
Главная / Архив / Т / Таррега / Воспоминания об Альгамбре
Ноты, аккорды и табулатуры для гитары
Автор Произведение Ноты (страницы)
Таррега Воспоминания об Альгамбре 1 2 3 4 6 6
Табулатуры Аккорды Послушать (midi)
Да Нет Да
Таррега - Воспоминания об Альгамбре / Tarrega - Recuerdos De La Alhambre



Табулатуры (табы)


||----0-0-0-(0)-0-0-0-(0)-0-0-0-(0)-0-0-0-(0)-----------------|
||o--------------------1----------------------3-3-3-(3)-3-3-3-|
||-----------------------------------------4------------------|
||-----------2-------------------2-------------------2--------|
||o-0---------------------------------------------------------|
||------------------------------------------------------------|


|----------------------------------------------------------------|
|-(3)-1-1-1-(1)-1-1-1-(1)-1-1-1-(1)-1-1-1-(1)-3-3-3-(3)-3-3-3----|
|----------------------2-------------------4---------------------|
|------------2-------------------2-------------------2-----------|
|--0-------------------------------------------------------------|
|----------------------------------------------------------------|


|-----0-0-0-(0)-0-0-0-(0)-0-0-0-(0)-0-0-0-(0)-0-0-0-(0)-0-0-0-|
|-(3)------------------1-------------------1------------------|
|-------------------------------------------------------------|
|------------2-------------------2-------------------2--------|
|--0----------------------------------------------------------|
|-------------------------------------------------------------|


|-(0)-0-0-0-(0)-0-0-0-(0)-0-0-0-(0)-0-0-0-(0)-1-1-1-(1)-1-1-1--|
|----------------------1-------------------3-------------------|
|----------------------------------------------------0---------|
|------------2-------------------2-----------------------------|
|--0-----------------------------------------------------------|
|--------------------------------------------------------------|


|-(1)-3-3-3-(3)-3-3-3-(3)-3-3-3-(3)-3-3-3-(3)-1-1-1-(1)-1-1-1-|
|----------------------5-------------------3------------------|
|------------0-------------------0-------------------0--------|
|-------------------------------------------------------------|
|--3----------------------------------------------------------|
|-------------------------------------------------------------|


|-(1)-0-0-0-(0)-0-0-0-(0)-0-0-0-(0)-0-0-0-(0)-1-1-1-(1)-1-1-1--|
|----------------------1-------------------3-------------------|
|------------0-------------------0-------------------0---------|
|--------------------------------------------------------------|
|--3-----------------------------------------------------------|
|--------------------------------------------------------------|


|-(1)-3-3-3-(3)-3-3-3-(3)-3-3-3-(3)-3-3-3-(3)-3-3-3-(3)-3-3-3-|
|----------------------5-------------------5------------------|
|-------------------------------------------------------------|
|------------5-------------------5-------------------5--------|
|--3----------------------------------------------------------|
|-------------------------------------------------------------|


|-(3)-3-3-3-(3)-3-3-3-(3)-3-3-3-(3)-3-3-3-(3)-3-3-3-(3)-3-3-3--|
|----------------------5-------------------5-------------------|
|--------------------------------------------------------------|
|------------5-------------------5-------------------5---------|
|--3-----------------------------------------------------------|
|--------------------------------------------------------------|


|-(3)-8-8-8-(8)-8-8-8--8-8-8-8-(8)-8-8-8-(8)-7-7-7-(7)-7-7-7-|
|---------------------10------------------8------------------|
|------------------------------------------------------------|
|-----------10-----------------10------------------10--------|
|--8---------------------------------------------------------|
|------------------------------------------------------------|


|-(7)-5-5-5-(5)-5-5-5-(5)-5-5-5-(5)-5-5-5-(5)-7-7-7-(7)-7-7-7--|
|----------------------6-----------------------------6---------|
|------------5-------------------5-----------------------------|
|--------------------------------------------------------------|
|--8---------------------------------------5-------------------|
|--------------------------------------------------------------|


|-(7)-5-5-5-(5)-5-5h7p5-(5)-4-4-4-(4)-4-4-4-(4)-4-4-4-(4)-4-4-4-|
|------------------------5-------------------5------------------|
|------------4---------------------4-------------------4--------|
|---------------------------------------------------------------|
|---------------------------------------------------------------|
|--0------------------------------------------------------------|


|-(4)-4-4-4-(4)-4-4-4-(4)-4-4-4-(4)-4-4-4-(4)-4-4-4-(4)-4-4-4-|
|------------3---------5---------3---------5---------3--------|
|-------------------------------------------------------------|
|-------------------------------------------------------------|
|-------------------------------------------------------------|
|--0----------------------------------------------------------|


|-(4)-6-6-6-(6)-6-6-6-(6)-6-6-6-(6)-6-6-6-(6)-5-5-5-(5)-5-5-5-|
|----------------------5-------------------5------------------|
|------------6-------------------6-------------------6--------|
|-------------------------------------------------------------|
|--0----------------------------------------------------------|
|-------------------------------------------------------------|


|-(5)-3-3-3-(3)-3-3-3-(3)-3-3-3-(3)-3-3-3-(3)-5-5-5-(5)-5-5-5--|
|----------------------5-------------------6-------------------|
|------------2-------------------2-------------------2---------|
|--------------------------------------------------------------|
|--4-----------------------------------------------------------|
|--------------------------------------------------------------|


|-(5)-3-3-3-(3)-3-3h5p3-(3)-1-1-1-(1)-1-1-1-(1)-1-1-1-(1)-1-1-1-|
|------------5-----------3-------------------3------------------|
|----------------------------------2-------------------2--------|
|---------------------------------------------------------------|
|--5------------------------------------------------------------|
|---------------------------------------------------------------|


|-(1)-1-1-1-(1)-1-1-1-(1)-1-1-1-(1)-1-1-1-(1)-1-1-1-(1)-1-1-1-|
|----------------------3-------------------3------------------|
|------------2-------------------2-------------------2--------|
|--0----------------------------------------------------------|
|-------------------------------------------------------------|
|-------------------------------------------------------------|


|-(1)-0-0-0-(0)-0-0-0-(0)-0-0-0-(0)-0-0-0-(0)-----------------|
|----------------------0----------------------3-3-3-(3)-3-3-3-|
|------------2-------------------2---------4---------2--------|
|--0----------------------------------------------------------|
|-------------------------------------------------------------|
|-------------------------------------------------------------|


|--------------------------------------------------------------|
|-(3)-1-1-1-(1)-1-1-1-(1)-1-1-1-(1)-1-1-1-(1)-3-3-3-(3)-3-3-3--|
|----------------------2-------------------2-------------------|
|------------1-------------------1-------------------1---------|
|--------------------------------------------------------------|
|--1-----------------------------------------------------------|


|---------------------------------------------------------------|
|-(3)-1-1-1-(1)-1-1h3p1-(1)-0-0-0-(0)-0-0-0-(0)-0-0-0-(0)-0-0-0-|
|------------------------1-------------------1------------------|
|------------2---------------------2-------------------2--------|
|---------------------------------------------------------------|
|--0------------------------------------------------------------|


|--------------------------------------------------------------||
|-(0)-0-0-0-(0)-0-0-0-(0)-0-0-0-(0)-0-0-0-(0)-0-0-0-(0)-0-0-0-o||
|----------------------1-------------------1-------------------||
|------------2-------------------2-------------------2---------||
|-------------------------------------------------------------o||
|--0-----------------------------------------------------------||


||------0-0-0-(0)-0-0-0-(0)-0-0-0-(0)-0-0-0-(0)-----------------|
||o-(0)------------------2----------------------3-3-3-(3)-3-3-3-|
||-------------------------------------------4------------------|
||-------------2-------------------2-------------------2--------|
||o--0----------------------------------------------------------|
||--------------------------------------------------------------|


|--------------------------------------------------------------|
|-(3)-2-2-2-(2)-2-2-2-(2)-2-2-2-(2)-2-2-2-(2)-3-3-3-(3)-3-3-3--|
|----------------------2-------------------4-------------------|
|------------2-------------------2-------------------2---------|
|--0-----------------------------------------------------------|
|--------------------------------------------------------------|


|-----0-0-0-(0)-0-0-0-(0)-0-0-0-(0)-0-0-0-(0)-0-0-0-(0)-0-0-0-|
|-(3)------------------2-------------------2------------------|
|-------------------------------------------------------------|
|------------2-------------------2-------------------2--------|
|--0----------------------------------------------------------|
|-------------------------------------------------------------|


|-(0)-0-0-0-(0)-0-0-0-(0)-0-0-0-(0)-0-0-0-(0)-0-0-0-(0)-0-0-0--|
|----------------------2-------------------2-------------------|
|--------------------------------------------------------------|
|------------2-------------------2-------------------2---------|
|--0-----------------------------------------------------------|
|--------------------------------------------------------------|


|-(0)-2-2-2-(2)-2-2-2-(2)-2-2-2-(2)-2-2-2-(2)-2-2-2-(2)-2-2-2-|
|----------------------3-------------------3------------------|
|-------------------------------------------------------------|
|------------4-------------------4-------------------4--------|
|--0----------------------------------------------------------|
|-------------------------------------------------------------|


|-(2)-10-10-10-(10)-10-10-10-(10)-10-10-10-(10)-10-10-10-(10)-2-2-2-(2)-2-2-2--|
|-----------------------------12---------------------------3-------------------|
|------------------------------------------------------------------------------|
|---------------12--------------------------12-----------------------4---------|
|--0---------------------------------------------------------------------------|
|------------------------------------------------------------------------------|


|-(2)-2-2-2-(2)-2-2h4p2-(2)-0-0-0-(0)-0-0-0-(0)-0-0-0-(0)-0-0-0-|
|------------3-----------2-------------------2------------------|
|---------------------------------------------------------------|
|----------------------------------2-------------------2--------|
|--0------------------------------------------------------------|
|---------------------------------------------------------------|


|-(0)-0-0-0-(0)-0-0-0-(0)-0-0-0-(0)-0-0-0-(0)-0-0-0-(0)-0-0-0-|
|----------------------2-------------------2------------------|
|-------------------------------------------------------------|
|------------2-------------------2-------------------2--------|
|--0----------------------------------------------------------|
|-------------------------------------------------------------|


|-(0)-5-5-5-(5)-5-5-5-(5)-5-5-5-(5)-5-5-5-(5)-5-5-5-(5)-5-5-5-|
|--------------------------------2----------------------------|
|----------------------2-------------------2------------------|
|------------4---------------------------------------4--------|
|-------------------------------------------------------------|
|--2----------------------------------------------------------|


|-(5)-4-4-4-(4)-4-4-4-(4)-4-4-4-(4)-4-4-4-(4)------------------|
|--------------------------------4------------4-4-4-(4)-4-4-4--|
|----------------------5-------------------5-------------------|
|------------6---------------------------------------6---------|
|--------------------------------------------------------------|
|--4-----------------------------------------------------------|


|-----2-2-2-(2)-2-2-2-(2)-0-0-0-(0)-0-0-0-(0)-0-0-0-(0)-0-0-0-|
|-(4)------------------2-------------------2------------------|
|--------------------------------1-------------------1--------|
|------------6------------------------------------------------|
|--4----------------------------------------------------------|
|-------------------------------------------------------------|


|-(0)-0-0-0-(0)-0-0-0-(0)-0-0-0-(0)-0-0-0-(0)-0-0-0-(0)-0-0-0--|
|----------------------2-------------------2-------------------|
|------------1-------------------1-------------------1---------|
|--------------------------------------------------------------|
|--4-----------------------------------------------------------|
|--------------------------------------------------------------|


|-(0)---------------------------------------------------------|
|-----3-3-3-(3)-3-3-3-(3)-3-3-3-(3)-3-3-3-(3)-3-3-3-(3)-3-3-3-|
|-------------------------------------------------------------|
|------------3---------3---------0---------2---------3--------|
|--2----------------------------------------------------------|
|-------------------------------------------------------------|


|--------------------------------------------------------------|
|-(3)-2-2-2-(2)-2-2-2-(2)-2-2-2-(2)-2-2-2-(2)-0-0-0-(0)-0-0-0--|
|--------------------------------------------------------------|
|------------2---------2---------2-------------------0---------|
|--------------------------------------------------------------|
|--0---------------------------------------0-------------------|


|---------------------------------------------------------------|
|-(0)-0-0-0-(0)-0-0h2p0-(0)-------------------------------------|
|---------------------------2-2-2-(2)-2-2-2-(2)-2-2-2-(2)-2-2-2-|
|------------2-----------2---------2---------4---------6--------|
|--0------------------------------------------------------------|
|---------------------------------------------------------------|


 1.
|--------------------------------------------------------------||
|-----------------------------------0-0-0-(0)-2-2-2-(2)-3-3-3-o||
|-(2)-2-2-2-(2)-2-2-2-(2)-2-2-2-(2)--------2---------4---------||
|------------2-------------------2-----------------------------||
|--0-------------------4--------------------------------------o||
|--------------------------------------------------------------||


  2.
|-----------------------------------------------------------|
|---------------------------------0-0-0-(0)-1-1-1-(1)-3-3-3-|
|---2-2-2-(2)-2-2-2-(2)-2-2-2-(2)--------2---------4--------|
|----------2---------2---------6----------------------------|
|-0---------------------------------------------------------|
|-----------------------------------------------------------|


|--------------------------------------------------------------|
|-(3)----------------------------------------------------------|
|-----2-2-2-(2)-2-2-2-(2)-2-2-2-(2)-2-2-2-(2)-2-2-2-(2)-2-2-2--|
|------------2---------2---------2---------2---------2---------|
|--0-----------------------------------------------------------|
|--------------------------------------------------------------|


|-------------------------------------------------------------|
|-------------------------------------------------------------|
|-(2)-2-2-2-(2)-2-2-2-(2)-2-2-2-(2)-2-2-2-(2)-2-2-2-(2)-2-2-2-|
|------------3---------3---------3---------3---------3--------|
|--0----------------------------------------------------------|
|-------------------------------------------------------------|


|--------------------------------------------------------------|
|-----0-0-0-(0)-0-0-0-(0)-1-1-1-(1)-1-1-1-(1)-3-3-3-(3)-3-3-3--|
|-(2)------------------2-------------------2-------------------|
|------------3-------------------3-------------------3---------|
|--0-----------------------------------------------------------|
|--------------------------------------------------------------|


|-----0-0-0-(0)-0-0-0-(0)-0-0-0-(0)-0-0-0-(0)-0-0-0-(0)-0-0-0-|
|-(3)------------------2-------------------2------------------|
|-------------------------------------------------------------|
|------------2-------------------2-------------------2--------|
|--0----------------------------------------------------------|
|-------------------------------------------------------------|


|-(0)-0-0-0-(0)-0-0-0-(0)-0-0-0-(0)-0-0-0-(0)-0-0-0-(0)-0-0-0--|
|----------------------2-------------------2-------------------|
|--------------------------------------------------------------|
|------------2-------------------2-------------------2---------|
|--0-----------------------------------------------------------|
|--------------------------------------------------------------|


|-(0)-0-0-0-(0)-0-0-0-(0)-0-0-0-(0)-0-0-0-(0)-0-0-0-(0)-0-0-0-|
|-------------------------------------------------------------|
|------------1---------1---------1---------1---------1--------|
|-------------------------------------------------------------|
|-------------------------------------------------------------|
|--0----------------------------------------------------------|


|-(0)----------------------------------------------------------|
|-----3-3-3-(3)-3-3-3-(3)-2-2-2-(2)-2-2-2-(2)-0-0-0-(0)-0-0-0--|
|--------------------------------------------------------------|
|------------4---------2---------2-------------------0---------|
|--------------------------------------------------------------|
|--0---------------------------------------0-------------------|


|-------------------------------------------------------------|
|-(0)---------------------------------------------------------|
|-----2-2-2-(2)-2-2-2-(2)-2-2-2-(2)-2-2-2-(2)-2-2-2-(2)-2-2-2-|
|------------2---------2---------3---------4---------3--------|
|--0----------------------------------------------------------|
|-------------------------------------------------------------|


|--------------------------------------------------------------|
|--------------------------------------------------------------|
|-(2)-2-2-2-(2)-2-2-2-(2)-2-2-2-(2)-2-2-2-(2)-2-2-2-(2)-2-2-2--|
|------------2---------2---------2---------2---------2---------|
|--0-----------------------------------------------------------|
|--------------------------------------------------------------|


|-------------------------------------------------------------|
|-------------------------------------------------------------|
|-(2)-2-2-2-(2)-2-2-2-(2)-2-2-2-(2)-2-2-2-(2)-2-2-2-(2)-2-2-2-|
|------------3---------3---------3---------3---------3--------|
|--0----------------------------------------------------------|
|-------------------------------------------------------------|


|--------------------------------------------------------------|
|-----0-0-0-(0)-0-0-0-(0)-1-1-1-(1)-1-1-1-(1)-3-3-3-(3)-3-3-3--|
|-(2)------------------2-------------------2-------------------|
|------------3-------------------3-------------------3---------|
|--0-----------------------------------------------------------|
|--------------------------------------------------------------|


|-----0-0-0-(0)-0-0-0-(0)-0-0-0-(0)-0-0-0-(0)-0-0-0-(0)-0-0-0-|
|-(3)------------------2-------------------2------------------|
|-------------------------------------------------------------|
|------------2-------------------2-------------------2--------|
|--0----------------------------------------------------------|
|-------------------------------------------------------------|


|-(0)-0-0-0-(0)-0-0-0-(0)-0-0-0-(0)-0-0-0-(0)-0-0-0-(0)-0-0-0--|
|----------------------2-------------------2-------------------|
|--------------------------------------------------------------|
|------------2-------------------2-------------------2---------|
|--0-----------------------------------------------------------|
|--------------------------------------------------------------|


|-(0)-4-4-4-(4)-4-4-4-(4)-4-4-4-(4)-4-4-4-(4)-4-4-4-(4)-4-4-4-|
|----------------------5-------------------5------------------|
|-------------------------------------------------------------|
|------------2-------------------2-------------------2--------|
|-------------------------------------------------------------|
|--0----------------------------------------------------------|


|-(4)-2-2-2-(2)-2-2-2-(2)-0-0-0-(0)-0-0-0-0------------------|
|----------------------2--------------------3-3-3-(3)-3-3-3--|
|-----------------------------------------4------------------|
|------------2-------------------2-----------------2---------|
|------------------------------------------------------------|
|--0---------------------------------------------------------|


|-------------------------------------------------------------|
|-(3)-2-2-2-(2)-2-2-2-(2)-2-2-2-(2)-2-2-2-(2)-2-2-2-(2)-2-2-2-|
|----------------------2-----------------------------2--------|
|------------2-------------------2---------4------------------|
|--0----------------------------------------------------------|
|-------------------------------------------------------------|


|--------------------------------------------------------------|
|-(2)-2-2-2-(2)-2-2-2-(2)-2-2-2-(2)-2-2-2-(2)-2-2-2-(2)-2-2-2--|
|----------------------2---------------------------------------|
|------------2-------------------------------------------------|
|--0---------------------------------------3---------4---------|
|--------------------------------0-----------------------------|


|-------------------------------------------------------------|
|-(2)-2-2-2-(2)-2-2-2-(2)-2-2-2-(2)-2-2-2-(2)-2-2-2-(2)-2-2-2-|
|----------------------2--------------------------------------|
|------------2------------------------------------------------|
|--0---------------------------------------3---------4--------|
|--------------------------------0----------------------------|


|-----------5-|-12------|-----------*|
|-------2-5---|-10------|-----------*|
|-----2-------|---------|-^2--------*|
|---2---------|-11------|-^2--------*|
|-0-----------|--0------|-^4--------*|
|-------------|---------|-^5--------*|

www.vse-noti.narod.ru