Rambler's Top100
Главная / Архив / Т / Таррега / Арабское каприччио
Ноты, аккорды и табулатуры для гитары
Автор Произведение Ноты (страницы)
Таррега Арабское каприччио 1 2 3 4
Табулатуры Аккорды Послушать (midi)
Да Нет Да
Таррега - Арабское каприччио / Tarrega - Capricho Arabe



Табулатуры (табы)


||-----------|-15p12-10p9-12p10-6p5-8p6-----|-0--------|---------||
||o----------|--------------------------8p5-|------3-5-|-2------o||
||-----------|------------------------------|------3---|-2-------||
||--<7>------|------------------------------|------5---|-2-------||
||o-<7>------|------------------------------|----------|-0------o||
||--<7>------|------------------------------|----------|---------||


|-----------|-------------|-------------------------------------------------|
|-----------|-------------|-------------------------------------------------|
|-----------|-------------|-------------------------------------------------|
|-------2-5S|=8-7-14---12-|-11-12-14-12-11-8-7-10-8-7-5-3-2-0---------------|
|-0---4-----|-------------|-----------------------------------4-1-0---------|
|-----------|-------------|-----------------------------------------5-3-2S==|


          Q=90
            4/4
|---------||-----------------|-----------------|
|---------||---3---3---2---2-|---3---3---2---2-|
|---------||---2---2---2---2-|---2---2---2-----|
|---------||---3-3---2-----5-|---3-3---2-------|
|---------||-------------0---|-------------0---|
|-8----7--||-0---------------|-0---------------|


||--1S5-----5-----(5)---5-6tr8-5-6-8-|
||o------6-----6------8--------------|
||-----------------------------------|
||-------7-----7---------------------|
||o---------8-(8)--7------0----------|
||----0-(0)--------------------------|


|-1S5-----5-----(5)------6tr8-5-6-8-|-8S5-----5------------7-9-10-12-|
|------6-----6------8-10------------|------6-----6----9-10-----------|
|-----------------------------------|--------------------------------|
|------7-----7----------------------|------7-----7-------------------|
|---------8-(8)--7-------0----------|---------8-(8)-7------0---------|
|---0-(0)---------------------------|---0-(0)------------------------|


|-13-13p=12-10-------9h12-9-----------|
|----10--------10-----------11-8------|
|----10--------10----------------9----|
|----------------------------------11-|
|------------0-(0)-7---------0--------|
|--0-(0)------------------------------|


|-----------------------------|-------------------------5-8S11-10-|
|-10-----10-------8-6-5h6-8-5-|-3S6------7------------7-----------|
|-----7------7----------------|------7-------5------5-------------|
|-----7------7----------------|------7-------7----7---------------|
|---------8-(8)-7-----0-------|-----------------5-----------------|
|--0-(0)----------------------|---0-(0)-(0)-(0)-------------------|


               H=H
|-8h10p8-6-5-3-6p5-10p9-12p10-13p12--|
|--------8---5-----------------------|
|----------3-------------------------|
|------0-----------------------------|
|--------------0---------------------|
|------------------------------------|


                                       Q=
|-15-12-10-9-12-10-6-5-8-6-------------||
|--------------------------8-5-3---2---||
|--------------------------------3---2-||
|--------------------------------------||
|--0-------------------------------0---||
|--------------------------------------||


 90                1.                   2.H.=H
|-----------------|------------------||------------------||
|---3---3---4---2-|---3---3---4---2-o||---3---3---3---5--||
|-----------0---2-|-----------0---2--||-----------3---3--||
|---3---3-------2-|---3---3-------2--||---3---3-------5--||
|-----1-------0---|-----1-------0---o||-----1-------3----||
|-0-------1-------|-0-------1--------||-0-------5--------||


  Q=90
|---5---5----------------------|-----------------5-6h8p6-5---|
|---6---6-----3-5-6-5tr6-----5-|-3h5p3---------8-----------8-|
|-5---5---(5)------------5-7---|-------5---5-----------5-----|
|----------5-------------------|-------7---7-5---------------|
|-----3-------------3----------|---------3-------------------|
|-3----------------------------|-----3-----------------------|


|-5S8-----------------------------|
|----------6------6---5-6h8p6-5---|
|------5-------5----7-----------7-|
|------7-------7------------------|
|---0-(0)-(0)-(0)-5---------------|
|---------------------------5-----|


                H.=H
|-3h5p3---------------0---------|
|--------1--1-------3---3-1-----|
|-------------3---3---------3---|
|-------------2-----------------|
|-----3-(3)-----3-------------3-|
|-------------------------------|


  Q=90
|---5---5----------------------|---------------------------6---|
|---6---6-----3-5-6-5tr6---3-5-|-3h5p3---------------5-6-8-----|
|-5---5---(5)------------5-----|-------5---5-----5-7-----------|
|----------5-------------------|-------7---7---8-----5---------|
|-----3-------------3----------|---------3---------------------|
|-3----------------------------|-----3-------5-----------------|


|-6h8p6p5-----------------10p6---0-------|---------0----9-12---6p3-0----------|
|----------5--------5----------8---3-----|-------2---10--------------3--------|
|----------6--------6----------------3p0-|-----2-----------------------3p0----|
|-------------<7>-(<7>)------------------|---2-----------------------------2--|
|-------0-(0)-----------0----------------|-0-----------------0----------------|
|----------------------------------------|------------------------------------|


                    H=H
|---------0-5-5-5-5---------------|------------------------------------||
|-------2-------------------------|-----------------1-2-3-4-5-6-7-8-9--||
|-----2---------------------------|-------0-1-2-3-4--------------------||
|---2-------------------------0-1-|-2-3-4------------------------------||
|-0-----------------0-1-2-3-4-----|------------------------------------||
|---------------------------------|------------------------------------||


  Q=90
|-----------------------9-10-9tr10-------9-|
|-10-----10-----(10)-12------------10-12---|
|-----7------7-----------------------------|
|-----7------7---------------7-------------|
|---------9-(9)---7------------------------|
|--0-(0)-----------------------------------|


|-7h9p7----------------------------|--------------------------------|
|-------10------------7-8h10p8-7---|-7S10---------------2-3h5p3-2---|
|--------7-----7----9------------9-|----------7-------4-----------4-|
|--------------7-------------------|-------7-----7------------2-----|
|-----------9-(9)-7----------0-----|----------9-(9)-----------------|
|-----0-(0)------------------------|----0-(0)-------2---------------|


|---------------4-5-9-7---0-|------------------7-9-10-9h10p9----7-9-|
|-5---------------------8---|-10-----10-----10---------------10-----|
|-------2-------------------|-----7------7--------------------------|
|----2-----2----------------|-----7------7-----------------7--------|
|-0-(0)-4-(4)-0-------------|---------9-(9)--7----------------------|
|---------------------------|--0-(0)--------------------------------|


|-7h9p7---------------------------8-|
|-------10-------------------7-10---|
|--------7-----7-----------8--------|
|--------------7------7h10----------|
|-----------9-(9)-6h9---------------|
|-----0-(0)-------------------------|


|-9-----9---------14p12-10------0---|
|--------------------------12p9---3-|
|----9-----9------------------------|
|-------7-(7)-----------------------|
|-7-(7)-------<7>-------------------|
|-----------------------------------|


                              H.=H
|-------------------------------------------------------||
|-3p2-2-12-12p10-10S8-8p7-7-------------------------10--||
|---------------------------9-9p7-7S6-6-----------------||
|---------------------------------------9-9p8-8p7-7-----||
|-------------------------------------------------------||
|-------------------------------------------------------||


  Q=90
|--------------------7-9-10-9h10p9----7-9-|
|-10-----10-----(10)---------------10-----|
|-----7------7----------------------------|
|-----7------7-------------------7--------|
|---------9-(9)---7-----------------------|
|--0-(0)----------------------------------|


|-7-9-7----------------------------|--------------------------------|
|-------10------------7-8h10p8-7---|-7S10---------------2-3h5p3-2---|
|--------7-----7----9------------9-|----------7-------4-----------4-|
|--------------7-------------------|-------7-----7------------2-----|
|-----------9-(9)-7----------0-----|----------9-(9)-----------------|
|-----0-(0)------------------------|----0-(0)-------2---------------|


|---------------4-5-9-7---0-|--------------------7-9-10-9h10p9----7-9-|
|-5---------------------8---|-10-----10-----(10)---------------10-----|
|-------2-------------------|-----7------7----------------------------|
|----2-----2----------------|-----7------7-------------------7--------|
|-0-(0)-4-(4)-0-------------|---------9-(9)---7-----------------------|
|---------------------------|--0-(0)----------------------------------|


|-7h9p7-----------------2-5S12-10-|
|-------10------------3-----------|
|--------7----7-----2-------------|
|-------------7-0-4---------------|
|-----------9---------------------|
|-----0-(0)-----------------------|


                               H.=H              Q=90
|-10h12p10-0---0---------5-3-|-3-5-3-2--------||-----------0-----|
|----------0---0-----2-3-----|-------------5--||-3-----3---0---2-|
|--------0---------4-----6-4-|-4-----2-----6--||---2-------0-----|
|----------------------------|-------------5--||---4---4-------5-|
|----------------------------|-0--------0-----||-----2-------0---|
|------------5---2-----------|----------------||-0-------5-------|


|-----------------|-1S5-----5-----(5)---5-6tr8-5-6-8-|
|---3---3---4---2-|------6-----6------8--------------|
|-----------0---2-|----------------------------------|
|---3---3-------2-|------7-----7---------------------|
|-----1-------0---|---------8-(8)--7------0----------|
|-0-------1-------|---0-(0)--------------------------|


|-1S5-----5-----(5)---5-6tr8-5-6-8--|
|------6-----6------8---------------|
|-----------------------------------|
|------7-----7----------------------|
|---------8-(8)--7------0-----------|
|---0-(0)---------------------------|


|-8S5-----5------------7-9-10-12-|
|------6-----6----9-10-----------|
|--------------------------------|
|------7-----7-------------------|
|---------8-(8)-7------0---------|
|---0-(0)------------------------|


|-13-13p=12-10-------9h12-9-----------|------------------------------|
|----10--------10-----------11-8------|-10-----10-------8-6-5h6-8-5--|
|----10--------10----------------9----|-----7------7-----------------|
|----------------------------------11-|-----7------7-----------------|
|------------0-(0)-7---------0--------|---------8-(8)-7-----0--------|
|--0-(0)------------------------------|--0-(0)-----------------------|


                                                   H=H
|-------------------------5-8S11-10-|-8h10p8-6-5-3-6p5-10p9-12p10-13p12-|
|-3S6------7------------7-----------|--------8---5----------------------|
|------7-------5------5-------------|----------3------------------------|
|------7-------7----7---------------|------0----------------------------|
|-----------------5-----------------|--------------0--------------------|
|---0-(0)-(0)-(0)-------------------|-----------------------------------|


|-15-12-10-9-12-10-6-5-8-6---------------||
|--------------------------8-5-3---2-----||
|--------------------------------3---2---||
|----------------------------------------||
|--0-------------------------------0-----||
|----------------------------------------||


  Q=90                      H.=H
|-----------------|-----------------|---------10----*|
|---3---3---4---2-|---3---3---4---2-|---------10----*|
|-----------0---2-|-----------0---2-|---------10----*|
|---3---3-------2-|---3---3-------2-|-<12>-----0----*|
|-----1-------0---|-----1-------0---|-<12>----------*|
|-0-------1-------|-0-------1-------|-<12>----------*|

www.vse-noti.narod.ru