Rambler's Top100
Главная / Архив / Т / Таррега / Прелюд "Слеза"
Ноты, аккорды и табулатуры для гитары
Автор Произведение Ноты (страницы)
Таррега Прелюд "Слеза" 1
Табулатуры Аккорды Послушать (midi)
Да Нет Да
Таррега - Прелюд "Слеза" / Tarrega - Lagrima



Табулатуры (табы)


||--4---5---7---|-2-----------|-4---5---7---|-2-----------|
||o---0---0---0-|---0---0---0-|---0---0---0-|---0---0---0-|
||--------------|-----2-------|-------------|-----2-------|
||--2---4---6---|-1-----------|-2---4---6---|-1-----------|
||o-------------|---------2---|-------------|---------2---|
||--------------|-------------|-------------|-------------|


|-12---11---9---|-7------0-------|----0---2-----|-0--------||
|-------------7-|---9---------10-|--0---2-----4-|---------o||
|----9----9-----|----------11----|-13---3-----2-|-1--------||
|-11----9---7---|-9---11---------|--------------|-2--------||
|---------------|----------------|----------2---|---------o||
|---------------|----------------|--------------|----0-----||


||--3-/8p7-0-2-3-|-0-----------|---12---8------|------------2--|	
||o-0--------4---|-------------|-0----------10-|-7--------0----|
||-----------2---|---5-4-2-0-2-|-0-------------|-7-------------|
||---------------|---7-5-4-2-4-|------7--------|---9h10-9------|
||o----------2---|-------------|----------9----|---------------|
||--0------------|-0-----------|-0-------------|-7-------------|


|-3---5---7---|-10p8-7--------|-0---2-------|-0--------||
|---0---0---0-|--------10-8-7-|---0---1-0---|---------o||
|-------------|---------------|---0---2---2-|-0--------||
|-2---4---5---|---------------|-----------1-|-2--------||
|-------------|--0------------|-----0---2---|---------o||
|-------------|---------------|-3-----------|----0-----||


|-4---5---7---|-2-----------|-4---5---7---|-2-----------|
|---0---0---0-|---0---0---0-|---0---0---0-|---0---0---0-|
|-------------|-----2-------|-------------|-----2-------|
|-2---4---6---|-1-----------|-2---4---6---|-1-----------|
|-------------|---------2---|-------------|---------2---|
|-------------|-------------|-------------|-------------|


|-12---11---9---|-7------0-------|----0---2-----|-0-------*|
|-------------7-|---9---------10-|--0---2-----4-|---------*|
|----9----9-----|----------11----|-13---3-----2-|-1-------*|
|-11----9---7---|-9---11---------|--------------|-2-------*|
|---------------|----------------|----------2---|---------*|
|---------------|----------------|--------------|----0----*|

www.vse-noti.narod.ru