Rambler's Top100
Главная / Архив / R / Red Hot Chili Peppers / Californication
Ноты, аккорды и табулатуры для гитары
Автор Произведение Ноты (страницы)
Red Hot Chili Peppers Californication 1
Табулатуры Аккорды Послушать (midi)
Да Да Да
Red Hot Chili Peppers - Californication



Табулатуры (табы)

   Intro
    Moderate Rock Q=96
   4/4
    Gtr I
||-----------------|----------------|----------------|-----------------||
||o-----0-1-(1)----|----------------|-----0-1-(1)----|----------------o||
||-----------------|-----0-2-(2)----|----------------|-----0-2-(2)-----||
||----2------------|----------------|---2------------|-----------------||
||o-0--------------|---3------------|-0--------------|---3------------o||
||-----------------|-1--------------|----------------|-1---------------||


   1st-5th Verses
    $
    $$
||-----------------|----------------|----------------|----------------|
||o-----0-1-(1)----|----------------|-----0-1-(1)----|----------------|
||-----------------|-----0-2-(2)----|----------------|-----0-2-(2)----|
||----2------------|----------------|---2------------|----------------|
||o-0--------------|---3------------|-0--------------|---3------------|
||-----------------|-1--------------|----------------|-1--------------|


                                     1.
                       To Dbl. Coda
|------------------|-------------1--|----------------|----------------|
|-----5------------|-------------3--|-----0-1-(1)----|----------------|
|-------5-----7----|-----2-----2----|----------------|-----0-2-(2)----|
|---5-----------5\-|-------3-0------|---2------------|----------------|
|-3---------5------|---3------------|-0--------------|---3------------|
|---------3--------|-1--------------|----------------|-1--------------|


|----------------|-----------------||
|-----0-1-(1)----|----------------o||
|----------------|-----0-2-(2)-----||
|---2------------|-----------------||
|-0--------------|---3------------o||
|----------------|-1---------------||


 2.
|-----0-0-0-(0)-0-0-0-0-0-|-0-0-0-0-0-0-0-0-0-0-0-0---|
|-1-1-1-1-1-(1)-1-1-1-1-1-|-1-1-1-1-1-1-1-1-1-1-1-1---|
|-2-2-2-2-2-(2)-2-2-2-2-2-|-2-2-2-2-2-2-2-2-2-2-2-2---|
|-2-2-2-2-2-(2)-2-2-2-2-2-|-3-3-3-3-3-3-3-3-3-3-3-3---|
|-0-0-0-0-0-(0)-0-0-0-0-0-|-3-3-3-3-3-3-3-3-3-3-3-3---|
|-------------------------|-1-1-0-1-1-0-1-0-1-1-0-1---|


                                                   Pre-Chorus
|-0-0-0-0-0-(0)-0-0-0-0-0-|-0-0-0-0-0-0--0-0-0-0-||-0-0-0-0-0-(0)-0-0-0-0--|
|-1-1-1-1-1-(1)-1-1-1-1-1-|-1-1-1-1-1-1--1-1-1-1-||-1-1-1-1-1-(1)-1-1-1-1--|
|-2-2-2-2-2-(2)-2-2-2-2-2-|-2-2-2-2-2-2--2-2-2-2-||-2-2-2-2-2-(2)-2-2-2-2--|
|-2-2-2-2-2-(2)-2-2-2-2-2-|-3-3-3-3-3-3--3-3-3-3-||-2-2-2-2-2-(2)-2-2-2-2--|
|-0-0-0-0-0-(0)-0-0-0-0-0-|----------------------||-0-0-0-0-0-(0)-0-0-0-0--|
|-------------------------|-1-1-1-1-1-1--1-1-1-1-||------------------------|


|-0-0-0-0-0-0-(0)-0-0-0-0-0-|-0-0-0-0-0-(0)-0-0-0-0-|-0-0-0-0-0-0-0-0-0-0-0-0--|
|-1-1-1-1-1-1-(1)-1-1-1-1-1-|-1-1-1-1-1-(1)-1-1-1-1-|-1-1-1-1-1-1-1-1-1-1-1-1--|
|-2-2-2-2-2-2-(2)-2-2-2-2-2-|-2-2-2-2-2-(2)-2-2-2-2-|-2-2-2-2-2-2-2-2-2-2-2-2--|
|-3-3-3-3-3-3-(3)-3-3-3-3-3-|-2-2-2-2-2-(2)-2-2-2-2-|-3-3-3-3-3-3-3-3-3-3-3-3--|
|-3-3-3-3-3-3-(3)-3-3-3-3-3-|-0-0-0-0-0-(0)-0-0-0-0-|-3-3-3-3-3-3-3-3-3-3-3-3--|
|-1-1-1-1-1-1-(1)-1-1-1-1-1-|-----------------------|-1-1-1-1-1-1-1-1-1-1-1-1--|


|-0-0-0-0-0-(0)-0-0-0-0-|-0-0-0-0-(0)-0-0-0-0-0-|-0-0-0-0-0-(0)-0-0-0-0-|
|-1-1-1-1-1-(1)-1-1-1-1-|-1-1-1-1-(1)-1-1-1-1-1-|-1-1-1-1-1-(1)-1-1-1-1-|
|-2-2-2-2-2-(2)-2-2-2-2-|-2-2-2-2-(2)-2-2-2-2-2-|-2-2-2-2-2-(2)-2-2-2-2-|
|-2-2-2-2-2-(2)-2-2-2-2-|-3-3-3-3-(3)-3-3-3-3-3-|-2-2-2-2-2-(2)-2-2-2-2-|
|-0-0-0-0-0-(0)-0-0-0-0-|-3-3-3-3-(3)-3-3-3-3-3-|-0-0-0-0-0-(0)-0-0-0-0-|
|-----------------------|-1-1-1-1-(1)-1-1-1-1-1-|-----------------------|


                            Chorus
|-0-0-0-0-0-0-0-0-0-0-0-0-||-3-3-3-3--3--3--|
|-1-1-1-1-1-1-1-1-1-1-1-1-||-1-1-1-1--0--0--|
|-2-2-2-2-2-2-2-2-2-2-2-2-||-0-0-0-0--0--0--|
|-3-3-3-3-3-3-3-3-3-3-3-3-||-2-2-2-2--0--0--|
|-3-3-3-3-3-3-3-3-3-3-3-3-||-3-3-3-3--2--2--|
|-1-1-1-1-1-1-1-1-1-1-1-1-||----------3--3--|


                       To Coda
|-1--1--0--0--|-3-3-3--3-3--1--|-(1)----||
|-3--3--1--1--|-1-1-1--0-0--3--|-(3)----||
|-2--2--2--2--|-0-0-0--0-0--2--|-(2)----||
|-0--0--2--2--|-2-2-2--0-0--0--|-(0)----||
|-------0--0--|-3-3-3--2-2-----|--------||
|-------------|--------3-3-----|--------||


|--------------------|-------------------|
|------0-1-(1)-------|-------------------|
|--------------------|--------0-2-(2)----|
|----2---------------|-------------------|
|--0-----------------|------3------------|
|--------------------|---1---------------|
|
| Gtr III
|-12-------12--7---8-|--(8)--------------|
|-13-------13--8--10-|-(10)--------------|
|-14-------14--9--10-|-(10)--------------|
|--------------------|-------------------|
|--------------------|-------------------|
|--------------------|-------------------|


                          D.S. al Coda
|----------------------|-----------------||
|------0-1--(1)--------|-----------------||
|----------------------|------0-2-(2)----||
|----2-----------------|-----------------||
|--0-------------------|----3------------||
|----------------------|--1--------------||
|
|-12-------(12)-15--12-|--8--------------||
|-13-------(13)-17--13-|-10--------------||
|-14-------(14)-17--14-|-10--------------||
|----------------------|-----------------||
|----------------------|-----------------||
|----------------------|-----------------||


  &
|-(1)-1-1-1-1-1-1-1-1--|-3--3--3--3--|-1--1-1-1-0--0--|-3--3--3-3--1-|-(1)----|
|-(3)-3-3-3-3-3-3-3-3--|-1--1--0--0--|-3--3-3-3-1--1--|-1--1--0-0--3-|-(3)----|
|-(2)-2-2-2-2-2-2-2-2--|-0--0--0--0--|-2--2-2-2-2--2--|-0--0--0-0--2-|-(2)----|
|-(0)-0-0-0-0-0-0-0-0--|-2--2--0--0--|-0--0-0-0-2--2--|-2--2--0-0--0-|-(0)----|
|----------------------|-3--3--2--2--|----------0--0--|-3--3--2-2----|--------|
|----------------------|-------3--3--|----------------|-------3-3----|--------|


 Guitar Solo
  Gtr II
|-------9-(9)--------------|------------------|
|-10-----------------------|------------------|
|---------------11b13r(11)-|-(11)-------------|
|--------------------------|------------------|
|--------------------------|------------------|
|--------------------------|------------------|
|
| Gtr III
|--2--2-2-(2)-2--2---------|---2----2-(2)--2--|
|--2--2-2-(2)-2--2---------|---2----2-(2)--2--|
|--2--2-2-(2)-2--2---------|---2----2-(2)--2--|
|--4--4-6-(6)-4--2---------|---0----0-(0)--0--|
|--------------------------|------------------|
|--------------------------|------------------|


|-------9-(9)--------------|------------------------|
|-10-----------------------|------------------------|
|---------------11b13r(11)-|-(11)-----(11)-11-11-11-|
|--------------------------|------------------------|
|--------------------------|------------------------|
|--------------------------|------------------------|
|
|--2--2-2-(2)-2--2---------|---2----2--(2)--2--2----|
|--2--2-2-(2)-2--2---------|---2----2--(2)--2--2----|
|--2--2-2-(2)-2--2---------|---2----2--(2)--2--2----|
|--4--4-6-(6)-4--2---------|---0----0--(0)--0--0----|
|--------------------------|------------------------|
|--------------------------|------------------------|


|----------------------|--------------------------------|-------9-(9)-12---14-|
|----------------------|--------------------------------|-10------------------|
|-11p9-----------------|-9---11b13r(11)-11-9------------|---------------------|
|------11-11------9-11-|-----------------------11-(11)--|---------------------|
|----------------------|--------------------------------|---------------------|
|----------------------|--------------------------------|---------------------|
|
|--2----2--2-----------|-5-5--5-------------------------|--2--2-2-(2)--2-2----|
|--2----2--2--7-7-7----|-5-5--5----------9---9------9---|--2--2-2-(2)--2-2----|
|--4----4--4--7-7-7----|-6-6--6----------9---9------9---|--2--2-2-(2)--2-2----|
|--4----4--4--7-7-7----|-7-7--7----------9---9------9---|--4--4-6-(6)--4-2----|
|--2----2--2--5-5-5----|-7-7--7----------7---7------7---|---------------------|
|----------------------|-5-5--5----------0---0------0---|---------------------|


    ~~~~
|-(14)-------------|-------9-(9)-12---14b16==|
|------------------|-10----------------------|
|------------------|-------------------------|
|------------------|-------------------------|
|------------------|-------------------------|
|------------------|-------------------------|
|
|---2----2-(2)--2--|--2--2-2-(2)--2-2--------|
|---2----2-(2)--2--|--2--2-2-(2)--2-2--------|
|---2----2-(2)--2--|--2--2-2-(2)--2-2--------|
|---0----0-(0)--0--|--4--4-6-(6)--4-2--------|
|------------------|-------------------------|
|------------------|-------------------------|


|-(14)r-14----(14)------|-17---16--14-------|
|-----------------------|---------------17--|
|-----------------------|-------------------|
|-----------------------|-------------------|
|-----------------------|-------------------|
|-----------------------|-------------------|
|
|---2-------2--(2)-2-2--|--2-2--2-----------|
|---2-------2--(2)-2-2--|--2-2--2---7-7--7--|
|---2-------2--(2)-2-2--|--4-4--4---7-7--7--|
|---0-------0--(0)-0-0--|--4-4--4---7-7--7--|
|-----------------------|--2-2--2---5-5--5--|
|-----------------------|-------------------|


|-14----------------------|---------------------------|
|------17-14-(14)-17---14-|-(14)-------------14-------|
|-------------------------|------16b18----16-16b18----|
|-------------------------|---------------------------|
|-------------------------|---------------------------|
|-------------------------|---------------------------|
|
|--5-5--5-----------------|---5---5----5--------------|
|--5-5--5------9---9-9----|---5---5----5---9--9----9--|
|--6-6--6------9---9-9----|---6---6----6---9--9----9--|
|--7-7--7------9---9-9----|---7---7----7---9--9----9--|
|--7-7--7------7---7-7----|---7---7----7---7--7----7--|
|--5-5--5------0---0-0----|---5---5----5---0--0----0--|


|---------------------------------|----------------------------|
|-14-14----(14)-17-17--14---19b21r|=(19)-17----17-(17)---------|
|-16-16b18-(16)-------------------|---------18---------18---16-|
|---------------------------------|----------------------------|
|---------------------------------|----------------------------|
|---------------------------------|----------------------------|
|
|--2---------2---2-(2)--2-2-------|---5---5--5-----------------|
|--2---------2---2-(2)--2-2-------|---5---5--5------9---9-9----|
|--2---------2---2-(2)--2-2-------|---6---6--6------9---9-9----|
|--4---------4---6-(6)--4-2-------|---7---7--7------9---9-9----|
|---------------------------------|---7---7--7------7---7-7----|
|---------------------------------|---5---5--5------0---0-0----|


|---------------------------||-----------------|
|-----------17-(17)-15---14-||-----------------|
|-(16)-14-------------------||-14--------------|
|---------------------------||-----------------|
|---------------------------||-----------------|
|---------------------------||-----------------|
|
|                           Gtr I
|---2-----2--2--(2)--2-2----||-----------------|
|---2-----2--2--(2)--2-2----||------0-1-(1)----|
|---2-----2--2--(2)--2-2----||-----------------|
|---4-----4--6--(6)--4-2----||----2------------|
|---------------------------||--0--------------|
|---------------------------||-----------------|


                             D.S.S. al Dbl. Coda
|----------------|----------------|----------------||
|----------------|----------------|----------------||
|----------------|----------------|----------------||
|----------------|----------------|----------------||
|----------------|----------------|----------------||
|----------------|----------------|----------------||
|
|----------------|----------------|----------------||
|----------------|-----0-1-(1)----|----------------||
|-----0-2-(2)----|----------------|-----0-2-(2)----||
|----------------|---2------------|----------------||
|---3------------|-0--------------|---3------------||
|-1--------------|----------------|-1--------------||


  &&
  Gtr I
|-----0-0-0-(0)-0-0-0-0-0-|-0-0-0-0-0-0-0-0-0-0-0-0-|
|-1-1-1-1-1-(1)-1-1-1-1-1-|-1-1-1-1-1-1-1-1-1-1-1-1-|
|-2-2-2-2-2-(2)-2-2-2-2-2-|-2-2-2-2-2-2-2-2-2-2-2-2-|
|-2-2-2-2-2-(2)-2-2-2-2-2-|-3-3-3-3-3-3-3-3-3-3-3-3-|
|-0-0-0-0-0-(0)-0-0-0-0-0-|-3-3-3-3-3-3-3-3-3-3-3-3-|
|-------------------------|-1-1-0-1-1-0-1-0-1-1-0-1-|


                                                   Pre-Chorus
|-0-0-0-0-0-(0)-0-0-0-0-0-|-0-0-0-0-0-0--0-0-0-0-||-0-0-0-0-0-(0)-0-0-0-0--|
|-1-1-1-1-1-(1)-1-1-1-1-1-|-1-1-1-1-1-1--1-1-1-1-||-1-1-1-1-1-(1)-1-1-1-1--|
|-2-2-2-2-2-(2)-2-2-2-2-2-|-2-2-2-2-2-2--2-2-2-2-||-2-2-2-2-2-(2)-2-2-2-2--|
|-2-2-2-2-2-(2)-2-2-2-2-2-|-3-3-3-3-3-3--3-3-3-3-||-2-2-2-2-2-(2)-2-2-2-2--|
|-0-0-0-0-0-(0)-0-0-0-0-0-|----------------------||-0-0-0-0-0-(0)-0-0-0-0--|
|-------------------------|-1-1-1-1-1-1--1-1-1-1-||------------------------|


                            Chorus
|-0-0-0-0-0-0-0-0-0-0-0-0-||-3----3-3-3----3---3---|
|-1-1-1-1-1-1-1-1-1-1-1-1-||-1----1-1-1----0---0---|
|-2-2-2-2-2-2-2-2-2-2-2-2-||-0----0-0-0----0---0---|
|-3-3-3-3-3-3-3-3-3-3-3-3-||-2----2-2-2----0---0---|
|-3-3-3-3-3-3-3-3-3-3-3-3-||-3----3-3-3----2---2---|
|-1-1-1-1-1-1-1-1-1-1-1-1-||---------------3---3---|
|
| Gtr II                     Gtr III
|-------------------------||-----------------------|
|-------------------------||-8-10p8----------------|
|-------------------------||------------9-(9)--7-9-|
|-------------------------||-----------------------|
|-------------------------||-----------------------|
|-------------------------||-----------------------|


|--1---1--0--0--|-3----3-3----3--3---1-|-(1)--------||
|--3---3--1--1--|-1----1-1----0--0---3-|-(3)--------||
|--2---2--2--2--|-0----0-0----0--0---2-|-(2)--------||
|--0---0--2--2--|-2----2-2----0--0---0-|-(0)--------||
|---------0--0--|-3----3-3----2--2-----|------------||
|---------------|-------------3--3-----|------------||
|
|---------------|----------------------|------------||
|---------------|-8h10p8---------------|------------||
|-(9)-----------|----------9-(9)---7-9-|-(9)--------||
|---------------|----------------------|------------||
|---------------|----------------------|------------||
|---------------|----------------------|------------||


  Gtr III
|----------------------|------------------|
|-8h10p8---------------|------------------|
|----------9-(9)---7-9-|-(9)--------------|
|----------------------|------------------|
|----------------------|------------------|
|----------------------|------------------|
|
| Gtr I
|-3------3----3--3-3-3-|--1---1-----------|
|-1------1----0--0-0-0-|--3---3--1--1-1-1-|
|-0------0----0--0-0-0-|--2---2--2--2-2-2-|
|-2------2----0--0-0-0-|--0---0--2--2-2-2-|
|-3------3----2--2-2-2-|---------0--0-0-0-|
|-------------3--3-3-3-|------------------|


|------------------------|------------*|
|-8h10p8-----------------|------------*|
|------------9-(9)-7---9-|-(9)--------*|
|--------------------7---|------------*|
|------------------------|------------*|
|------------------------|------------*|
|
|----3-3-3-3----3--3-3-1-|-(1)--------*|
|----1-1-1-1----0--0-0-3-|-(3)--------*|
|----0-0-0-0----0--0-0-2-|-(2)--------*|
|----2-2-2-2----0--0-0-0-|-(0)--------*|
|----3-3-3-3----2--2-2---|------------*|
|---------------3--3-3---|------------*|

www.vse-noti.narod.ru