Rambler's Top100
Главная / Архив / M / Mancini / The Pink Panther (Розовая пантера)
Ноты, аккорды и табулатуры для гитары
Автор Произведение Ноты (страницы)
Mancini The Pink Panther 1 2
Табулатуры Аккорды Послушать (midi)
Да Нет Да
Mancini - The Pink Panther (Розовая пантера)



Табулатуры (табы)

 
|-------------|--------------|-----------------|
|-------------|--------------|-----------------|
|-------------|--------------|-----------------|
|------6-/7-8-|-/9-----------|---------6-/7-8--|
|------4-/5-6-|-/7-----------|-<7>-----4-/5-6--|
|-------------|-------<7>----|-----------------|


|--------------|----------------|--------------|----------------|
|--------------|----------------|--------------|----------------|
|--------------|----------------|--------------|----------------|
|-/9-----------|---------8-/7-6-|-/5-----------|---------6-/7-8-|
|-/7-----------|-<7>-----6-/5-4-|-/3-----------|-<3>-----4-/5-6-|
|-------<7>----|----------------|-------<3>----|----------------|


|--------------|----------------||--0----2-3------|
|--------------|--------------4-||o-----------0-4-|
|--------------|----------------||----------------|
|-/9-----------|---------6-/7---||-----x----------|
|-/7-----------|-<7>-----4-/5-6-||o----x---2------|
|-------<7>----|----------------||--0--x----------|


|-0------8-/7---3-7-|-6--------5-3-----|-----------------|
|---7-/8------5-----|----5---------5-3-|-5----5--------4-|
|-------------------|----3-------------|------3----------|
|---4-/5------------|------5-----------|----5-----6-/7---|
|-------------------|-3----------------|-3--------4-/5-6-|
|-0-----------------|--------3---------|--------3--------|


|-0----2-3------|-0-------8-/7---3-12-|-11-------------------|
|-----------0-4-|---7--/8------5------|-----10-10---10----10-|
|---------------|---------------------|------8--8----8-----8-|
|----x----------|---------------------|----------------10----|
|----x---2------|---9-/10-------------|--8-------------------|
|-0--x----------|-0-------------------|-----------8----------|


|-------------------|-0----2-3------|-0------8-/7---3-7-|-6--------5-3-----|
|-------10--------4-|-----------0-4-|---7-/8------5-----|----5---------5-3-|
|-------------------|---------------|-------------------|----3-------------|
|----10------6-/7-6-|----x----------|---4-/5------------|------5-----------|
|-8----------4-/5---|----x---2------|-------------------|-3----------------|
|----------8--------|-0--x----------|-0-----------------|--------3---------|


|---------------|-0--11-/12-10------------|-------------------------|
|-5----5---5----|-0------------12-10------|-11s10-11s10-11s10-11s10-|
|------3---3----|-0------------------12-9-|-------------------------|
|----5-------5--|-2-----------------------|-------------------------|
|-3-------------|-2-----------------------|-------------------------|
|--------3------|-0-----------------------|-------------------------|


|-3-0---0-0-0-------|-3-0---0-0---------|-3-0---0-0---------|
|-----3-----0-------|-----3-----x-------|-----3-----x-------|
|-------------------|-----------x-------|-----------x-------|
|-------------1-0---|-----------x---0-1-|-----------x-1-0---|
|-----------------4-|-3-----------4-----|-----------------4-|
|-0-----------------|-------------------|-0-----------------|


  1.                    2.                   Q=164
|-3-0---0-0----------||-3-0---0-0-(0)----||-------------------|
|-----3-----x-----4-o||-----3------------||o------------------|
|-----------x--------||------------------||-------------------|
|-------------6-7----||------------------||-------------------|
|-3-----------4-5-6-o||-3----------------||o-----2-2-7-7-6-6--|
|--------------------||------------------||--0-0--------------|


  1.,2.,3.            4.
|------------------||-----------------||--0------7-------|-6-------5-3-0---|
|-----------------o||---------------0-||o----------------|---------------3-|
|------------------||-----------------||-----------------|-----------------|
|------------------||-----------------||-----------------|-----------------|
|-5-5-4-4-3-3-2-2-o||-5-5-4-4-3-3-2---||o--------7-7-6-6-|-5-5-4-4-3---2---|
|------------------||-----------------||--0--7-7---------|-----------------|


|-0---0---0-------|-----------------|-0-------7-------|-6-------5-3-0---|
|---0---3---3-0---|-0-------------0-|-----------------|---------------3-|
|---------------2-|-----------------|-----------------|-----------------|
|---------2---1---|-0-0-------------|-----------------|-----------------|
|-----2-2---------|-----4-4-3-3-2---|---------7-7-6-6-|-5-5-4-4-3-3-2---|
|-0---------------|-----------------|-0-0-7-7---------|-----------------|


  1.                                2.
|-0--0--0-0--0-|-----------------||-0--0--0-0--0-|-----0----|-(0)----*|
|-------5-5--5-|--0-0-0-0-0-0-0-o||-------5-5--5-|-----4----|-(4)----*|
|--------------|--2-2-2-2-2-2----||--------------|-----0----|-(0)----*|
|--------------|--1-1-1-1-1-1----||--------------|-----4----|-(4)----*|
|--------------|--2-2-2-2-2-2---o||--------------|-----2----|-(2)----*|
|-0--0--3-2--0-|-----------------||-0--2--3-2--0-|-----0----|-(0)----*|

www.vse-noti.narod.ru