Rambler's Top100
Главная / Архив / Г / Григ / В пещере горного короля
Ноты, аккорды и табулатуры для гитары
Автор Произведение Ноты (страницы)
Григ В пещере горного короля 1 2
Табулатуры Аккорды Послушать (midi)
Да Нет Да
Григ - В пещере горного короля / Grieg - In The Hall Of The Mountain King



Табулатуры (табы)

|----------------|---------------|-----------------|--------------|
|----------------|---------------|-----------------|--------------|
|----------------|---------------|-----------------|--------------|
|----------------|---------------|---------------2-|-0-------0----|
|-------0-2---2--|-1---1--0---0--|-------0-2---2---|---2---2------|
|-0-2-3-----3----|---2------1----|-0-2-3-----3-----|-----3--------|


|----------------|---------------|---------------0-|--------------|
|----------------|---------------|-----------------|-3-------3----|
|-------2-4---4--|-3---3--2---2--|-------2-4---4---|---4-0-4------|
|-2-4-5-----5----|---4------3----|-2-4-5-----5---2-|-0-------0----|
|-------0-2---2--|-1---1--0---0--|-------0-2---2---|---2---2------|
|-0-2-3-----3----|---2------1----|-0-2-3-----3-----|-----3--------|


|----------------|---------------|----------------|-------------|
|----------------|---------------|----------------|-------------|
|----------------|---------------|----------------|-------------|
|---------4---4--|-5---5--4---4--|---------4---4--|-5---5--4----|
|---4-6-7---6----|---6------6----|---4-6-7---6----|---6---------|
|-7--------------|---------------|-7--------------|-------------|


|----------------|-----------------|----------------|-----------------|
|-0-2-4-5-7-4-7--|--8-4--8--7-4-7--|-0-2-4-5-7-4-7--|--8-4--8--7------|
|----------------|-----------------|----------------|-----------------|
|----------------|-----------------|----------------|-----------------|
|-2-4-6-7-9-6-9--|-10-6-10--9-6-9--|-2-4-6-7-9-6-9--|-10-6-10--9---9\-|
|----------------|-----------------|----------------|-----------------|


|----------------|---------------|---------------0-|--------------|
|----------------|---------------|-----------------|-3-------3----|
|----------------|---------------|-------2-4---4---|---4-0-4------|
|-2--------------|---------------|-2-4-5-----5---2-|-0-------0----|
|-------0-2---2--|-1---1--0---0--|-------0-2---2---|---2---2------|
|-0-2-3-----3----|---2------1----|-0-2-3-----3-----|-----3--------|


|----------------|---------------|---------------0-|-------0-------|
|----------------|---------------|-----------------|-0---0---------|
|----------------|---------------|-----0-2-4-0-4---|---0-----------|
|-2--------------|---------------|-2-4-2---0-------|-0-------0-----|
|-------0-2---2--|-1---1--0---0--|-------------2---|-2---0---------|
|-0-2-3-----3----|---2------1----|-0---------------|---------3---2-|


||-----------------|---------------|---------------0-|-----------------||
||o----------------|---------------|-----------------|-3-0---0-3------o||
||------0-2-4p0-4--|-3---3--2---2--|-----0-2-4p0-4---|-----0-----------||
||--2-4------------|---4------3----|-2-4---------2---|-----0-------0---||
||o-------------2--|-----1------0--|-----2-----------|----------------o||
||--0-------0------|-0------0------|-0-------0-------|-3-------3-------||


    Q=125
||-----------------------|---------------------|
||o---------10-12----12--|-11----11--10----10--|
||--9-11-12-------12-----|----11--------10-----|
||--------9-----------9--|--------8---------7--|
||o----------------------|---------------------|
||--0-----------0--------|--0---------0--------|


|---------------------12-|-10----------10---------||
|---------10-12----12----|----12----12-----------o||
|-9-11-12-------12-------|-------12---------------||
|-------9-----------9----|------------------------||
|------------------------|-10----10----10---10\--o||
|-0-----------0----------|------------------------||


  Q=136
|---------2---2--|-3---3--2---2--|---------2---2--|-3---3--2-----|
|---2-4-5---4----|---4------4----|---2-4-5---4----|---4----4-----|
|-4--------------|---------------|-4--------------|-----4--4-----|
|-----4-------4--|-----5------4--|-----4-------4--|-----5------4-|
|-2-------2------|--------2------|-2-------2------|--------2-----|
|----------------|-3-------------|----------------|-3------------|


  Q=140                            Q=142            Q=145
|---------2---2--|-4---4--2---2--|---------2---2--|-4---4---7----|
|---2-4-5---4-4--|---4-4----4-4--|---2-4-5---4-4--|---4-4-7-7----|
|-4---4-------4--|-----5------4--|-4---4-------4--|-----5---8----|
|-----4-------4--|-----6------4--|-----4-------4--|-----6---7----|
|-2-------2------|--------2------|-2-------2------|---------9----|
|----------------|-4-------------|----------------|-4-----7-7----|


    Q=151
||--12--------------------|---------------------|
||o-12-------10-12----12--|-11----11--10----10--|
||---9-11-12-------12-----|----11--------10-----|
||---9-----------------9--|--------8---------7--|
||o-10--------------------|---------------------|
||---0-----------0--------|--0---------0--------|


|---------------------12-|-10----------10---------||
|---------10-12----12----|----12----12-----------o||
|-9-11-12-------12-------|-------12---------------||
|-------9-----------9----|------------------------||
|------------------------|-10----10----10---10\--o||
|-0-----------0----------|------------------------||


    Q=161
||-----------------|---------------|---------------0-|-------0-----0---||	
||o----------------|---------------|-------------0---|-0---0-------0--o||
||------0-2-4-0-4--|-3---3--2---2--|-----0-2-4-0-----|---0---------0---||
||--2-4------------|---4------3----|-2-4---------2---|-----2---2-------||
||o-----2-------2--|-----1------0--|-----2-----------|----------------o||
||--0-------0------|-0------0------|-0-------0-------|-0-------0-------||


  Q=162                     Q=200
|----12------|----12------|-----------7---7-12-|-11---11-14-12----|
|----11------|----12------|------8-10---8------|----7-------------|
|----12------|-----9------|-9-11---------------|------------------|
|----11------|-----9------|--------------------|------------------|
|------------|------------|--------------------|------------------|
|-0----------|-0----------|-8---------7--------|--7---------12----|


  Q=162                     Q=200
|----12------|----12------|-------------------|----------0----|
|----11------|----12------|-0-0--0-0-0--0-0-0-|-0-0-0--0------|
|----12------|-----9------|-----------------9-|-8---8-11-9----|
|----11------|-----9------|--------7-9----9---|---9-----------|
|------------|------------|-7-9-10-----10-----|---------------|
|-0----------|-0----------|-------------------|---------------|


  Q=162                     Q=200
|----12------|----12------|----12--12--12--|-12--12--12--12--|
|----11------|----11------|----11--11--11--|-11--11--11--11--|
|----12------|----12------|----12--12--12--|-12--12--12--12--|
|----11------|----11------|----11--11--11--|-11--11--11--11--|
|------------|------------|----------------|-----------------|
|-0----------|-0----------|-0--------------|-----------------|


|-(12)--------|-(12)-------12\-|----12----*|
|-(11)--------|-(11)-----------|----12----*|
|-(12)--------|-(12)-----------|-----9----*|
|-(11)--------|-(11)-----------|-----9----*|
|-------------|----------------|----10----*|
|-------------|----------------|-0---0----*|

www.vse-noti.narod.ru