Rambler's Top100
Главная / Архив / Г / Гомес / Романс
Ноты, аккорды и табулатуры для гитары
Автор Произведение Ноты (страницы)
Гомес Романс 1
Табулатуры Аккорды Послушать (midi)
Да Нет Да
Гомес - Романс / Gomez - Romanza



Табулатуры (табы)

||--7-----7-----7-----|-7-----5-----3-----|				   
||o---0-----0-----0---|---0-----0-----0---|
||------0-----0-----0-|-----0-----0-----0-|
||--------------------|-------------------|
||o-------------------|-------------------|
||--0-----------------|-0-----------------|


|-3-----2-----0-----|-3-----7-----12-----|
|---0-----0-----0---|---0-----0------0---|
|-----0-----0-----0-|-----0-----0------0-|
|-------------------|--------------------|
|-------------------|--------------------|
|-0-----------------|-0------------------|


|-12-----12-----12-----|-12-----10-----8-----|
|----0------0------0---|----0------0-----0---|
|------0------0------0-|------0------0-----0-|
|----------------------|---------------------|
|----------------------|---------------------|
|--0-------------------|--0------------------|


|-8-----7-----5-----|-5-----7-----8-----|
|---5-----5-----5---|---5-----5-----5---|
|-----5-----5-----5-|-----5-----5-----5-|
|-------------------|-------------------|
|-0-----------------|-0-----------------|
|-------------------|-------------------|


|-7-----8-----7-----|-11-----8-----7-----|
|---7-----7-----7---|----7-----7-----7---|
|-----8-----8-----8-|------8-----8-----8-|
|-------------------|--------------------|
|-------------------|--------------------|
|-7-----------------|--7-----------------|


|-7-----5-----3-----|-3-----2-----0-----|
|---0-----0-----0---|---0-----0-----0---|
|-----0-----0-----0-|-----0-----0-----0-|
|-------------------|-------------------|
|-------------------|-------------------|
|-0-----------------|-0-----------------|


|-2-----3-----2-----|-2-----3-----2-----|
|---0-----0-----0---|---0-----0-----0---|
|-----2-----2-----2-|-----2-----2-----2-|
|-------------------|-1-----------------|
|-2-----------------|-------------------|
|-------------------|-------------------|


|-0-----0-----0-----|-0-----0-----0------||
|---0-----0-----0---|---0-----0-----0---o||
|-----0-----0-----0-|-----0-----0-----0--||
|-2-----------------|--------------------||
|-------2-----------|-------------------o||
|-------------0-----|-0------------------||


|-4-----4-----4-----|-4-----2-----0-----|
|---0-----0-----0---|---0-----0-----0---|
|-----1-----1-----1-|-----1-----1-----1-|
|-------------------|-------------------|
|-------------------|-------------------|
|-0-----------------|-0-----------------|


|-------------------|-------------------|
|-5-----4-----4-----|-4-----3-----4-----|
|---2-----2-----2---|---2-----2-----2---|
|-----4-----4-----4-|-----4-----4-----4-|
|-2-----------------|-2-----------------|
|-------------------|-------------------|


|-9-----9-----9-----|-9-----11-----9-----|
|---7-----7-----7---|---7------7-----7---|
|-----8-----8-----8-|-----8------8-----8-|
|-------------------|--------------------|
|-------------------|--------------------|
|-7-----------------|-7------------------|


|-9-----7-----7-----|-7-----9-----11-----|
|---9-----9-----9---|---9-----9------9---|
|-----9-----9-----9-|-----9-----9------9-|
|-------------------|--------------------|
|-------------------|--------------------|
|-0-----------------|-0------------------|


|-12-----12-----12-----|-12-----11-----10-----|
|----9------9------9---|----9------9------9---|
|------9------9------9-|------9------9------9-|
|----------------------|----------------------|
|----------------------|----------------------|
|--0-------------------|--0-------------------|


|-9------9------9------|-9------7-----5-----|
|---10-----10-----10---|---10-----5-----5---|
|------9------9------9-|------9-----6-----6-|
|----------------------|--------------------|
|-0--------------------|-0------------------|
|----------------------|--------------------|


|-4-----4-----4-----|-4-----5-----2-----|
|---4-----4-----4---|---4-----4-----4---|
|-----2-----2-----2-|-----2-----2-----2-|
|-------------------|-------------------|
|-2-----------------|-2-----------------|
|-------------------|-------------------|


|-0-----0-----0-----|-0-----0-----0-----|---*|
|---0-----0-----0---|---0-----0-----0---|---*|
|-----1-----1-----1-|-----1-----1-----1-|---*|
|-2-----------------|-------------------|---*|
|-------2-----------|-------------------|---*|
|-------------4-----|-0-----------------|-0-*|

www.vse-noti.narod.ru