Rambler's Top100
Главная / Архив / E / Ellington / Caravan
Ноты, аккорды и табулатуры для гитары
Автор Произведение Ноты (страницы)
Ellington Caravan 1 2
Табулатуры Аккорды Послушать (midi)
Да Нет Да
Ellington - Caravan (Саундтрек к мультфильму "Ну, погоди")



Табулатуры (табы)

  Q=220(8=s8)
 4/4
  Gtr I
|-------------|-------------|-------------|--------------|
|-------------|-------------|-------------|--------------|
|-------------|-------------|-------------|--------------|
|----5-----5--|----5-----5--|----5-----5--|----5-----5---|
|-------------|-------------|-------------|--------------|
|-5-----6-----|-5-----6-----|-5-----6-----|-5-----6------|


||--5-----------|-------------|---6----5------|----5--9-------|
||o-------------|-------------|----------5----|-8-------5-----|
||--------------|-------------|---------------|---------------|
||-----5-----5--|----5-----6--|-----5------5--|----5------5---|
||o-------------|-------------|---------------|---------------|
||--5-----6-----|-5-----6-----|-5------6------|-5-----6-------|


|-------------|-------------|---5----6--5--|-6--5--------|
|-8-----------|-------------|--------------|-------9--5--|
|-------------|-------------|--------------|-------------|
|----5-----5--|----5-----5--|-----5-----5--|----5-----5--|
|-------------|-------------|--------------|-------------|
|-5-----6-----|-5-----6-----|-5------6-----|-5-----6-----|


|-------------|-------------|---5----------|--------------|
|-8-----------|-------------|--------9--8--|-7--6---------|
|-------------|-------------|--------------|-------8-6----|
|----5-----5--|----5-----5--|-----5-----5--|----5------5--|
|-------------|-------------|--------------|--------------|
|-5-----6-----|-5-----6-----|-5------6-----|-5-----6------|


|--------------||-------------------8\-|-7-----------|-------------|
|-------------o||----------------^6----|-------------|-------------|
|-7------------||-------------^5-------|-------------|-------------|
|----7-----7---||----7-----^7----------|----7-----7--|----7-----7--|
|-5-----------o||-5--------------------|-5-----------|-5-----------|
|-------5------||-------5--------------|-------5-----|-------5-----|


|-----10----------|-----------------------|-0------------|----------------|
|-----------------|-12------10h=12p10-----|--------------|----------------|
|-----------------|-------------------11--|--------------|----------------|
|-----10------10--|-----10------------10--|----4-----4-0-|---0---0---0----|
|---------12------|---------12------------|-5------------|-5---3---2---0--|
|-10--------------|-10--------------------|-------5------|----------------|


|----5--------|-----------------|--------------|----------------|
|-------------|-5-----3h=5p3----|--------------|----------------|
|-------------|--------------4--|-2----------0-|---0---0---0----|
|----3-----3--|----3---------3--|----3-----3---|-5---3---2---0--|
|-------------|-----------------|--------------|----------------|
|-3-----3-----|-3-----3---------|-3-----3------|----------------|


|----8--------|------------------|-------------|-----------------|
|-------------|-10-----8-10-8----|-3-----------|---1---3---1-----|
|-------------|---------------9--|-3-----------|---3---3---3-----|
|----8-----8--|-----8---------8--|----2-----2--|-----2-------2---|
|-------------|------------------|-3-----------|-3---------------|
|-8-----8-----|--8-----8---------|-------3-----|---------3-------|


|-----------1-----|------------1--|-----------------|-0------------|
|-----1-----------|-1-----1----1--|-----0-----0---0-|-------0------|
|---2-----2-----2-|-----2------2--|---1-----1-------|-----1--------|
|-------------0---|---------------|-------------0---|--------------|
|-------3---------|---3-----------|-------2---------|---2----------|
|-1---------------|---------1-----|-0---------------|---------0----|


|-5----5b5.5----|-5----5b5.5----|-5---6-5-----|----5--9-----|
|------8--------|------8--------|----------5--|-8--------5--|
|---------------|---------------|-------------|-------------|
|---------------|---------------|-------------|-------------|
|---------------|---------------|-------------|-------------|
|---------------|---------------|-------------|-------------|


|-------------------|--------------------|-----5-6--5--|-6--5h6p5-4------|
|-8---8-----------8-|-8---8----------8-8-|-8-----------|-------------5---|
|-------10b10.5-----|-------10b10.5------|-------------|-----------------|
|-------------------|--------------------|-------------|-----------------|
|-------------------|--------------------|-------------|-----------------|
|-------------------|--------------------|-------------|-----------------|


|--------------|----5--------|-------------|-----------------|
|-7b7.5--------|---^5--9--8--|-7--6--5-----|-----------------|
|--------------|---^6--------|----------8--|-----7-----7-----|
|--------------|---^7--------|-------------|-0-7---0-7---0-7-|
|--------------|-------------|-------------|-----------------|
|--------------|-------------|-------------|-----------------|


|----------------|-----------------|----------------|-5h6p5-4--5h6p5-4--|
|----------------|-----------------|----------------|-------------------|
|-7-----7-----7--|-----4-----4-----|-4-----4-----4--|-------------------|
|---0-7---0-7----|-0-7---0-7---0-7-|---0-7---0-7----|-------------------|
|----------------|-----------------|----------------|-------------------|
|----------------|-----------------|----------------|-------------------|


|-5h6p5-4--5h6p5-4--|-5---6-5h6p5----|----5--9-----|--------------|
|-------------------|-------------5--|-8--------5--|-8------------|
|-------------------|----------------|-------------|--------------|
|-------------------|----------------|-------------|----5-----5---|
|-------------------|----------------|-------------|--------------|
|-------------------|----------------|-------------|-5-----6------|


|-------------|---5----6--5--|-6--5--------|-------------|
|-------------|--------------|-------9--5--|-8-----------|
|-------------|--------------|-------------|-------------|
|----5-----5--|-----5-----5--|----5-----5--|----5-----5--|
|-------------|--------------|-------------|-------------|
|-5-----6-----|-5------6-----|-5-----6-----|-5-----6-----|


  Q=200         Q=170          Q=140          Q=180
|-------------|----^5--------|--------------|-------7--5--|
|-------------|----^5--9--8--|-7--6--^4-----|-------8--6--|
|-------------|----^6--------|-------^6--6--|-7-----7--7--|
|----5-----5--|----^7--------|-------^5-----|----0--------|
|-------------|----^7--------|-------^0-----|-------------|
|-5-----6-----|-5------------|--------------|-------------|


|----12--10----*|
|----13--10----*|
|----12--10----*|
|-0------------*|
|--------------*|
|--------------*|

www.vse-noti.narod.ru