Rambler's Top100
Главная / Архив / Б / Бетховен / Лунная соната
Ноты, аккорды и табулатуры для гитары
Автор Произведение Ноты (страницы)
Бетховен Лунная соната 1 2 3 4
Табулатуры Аккорды Послушать (midi)
Да Нет Да
Бетховен - Лунная соната / Beethoven - Moonlight sonata



Табулатуры (табы)

6 - D (ре)
  Gtr I
|-------------------------|-------------------------|				
|-------------------------|-------------------------|
|-------------------------|-------------------------|
|-------------------------|-------------------------|
|-------------------------|-------------------------|
|-7-----------------------|-5-----------------------|
|6 - D (ре)
| Gtr II
|-------------------------|-------------------------|
|-----1-----1-----1-----1-|-----1-----1-----1-----1-|
|---2-----2-----2-----2---|---2-----2-----2-----2---|
|-2-----2-----2-----2-----|-2-----2-----2-----2-----|
|-------------------------|-------------------------|
|-------------------------|-------------------------|


|-------------------------|---------------------------|
|-------------------------|---------------------------|
|-------------------------|---------------------------|
|-------------------------|-------------2-------------|
|-------------------------|---------------------------|
|-3-----------0-----------|-2-----------2-------------|
|
|-------------------------|---------------------------|
|-----1-----1-----3-----3-|-----3-----1-----0-----0---|
|---2-----2-----3-----3---|---1-----2-----2-----1-----|
|-3-----3-----3-----3-----|-2-----2-----2-----0-------|
|-------------------------|---------------------------|
|-------------------------|---------------------------|


|-------------------0-----0-|-0-----------------0-----0-|
|---------------------------|---------------------------|
|---------------------------|---------------------------|
|-2-------------------------|---------------------------|
|-0-------------------------|---------------------------|
|---------------------------|-6-------------------------|
|
|---------------------------|---------------------------|
|-----------1-----1-----1---|-----3-----3-----3-----3---|
|-----2---2-----2-----2-----|---4-----4-----4-----4-----|
|---2---2-----2-----2-------|-2-----2-----2-----2-------|
|-3-------------------------|---------------------------|
|---------------------------|---------------------------|


|-0-----------1-----------|-0-----------------3------|
|-------------------------|-------------3------------|
|-------------------------|--------------------------|
|-------------------------|--------------------------|
|-0-----------------------|--------------------------|
|-------------0-----------|-5-----------5------------|
|
|-------------------------|--------------------------|
|-----1-----1-----3-----3-|-----1-----1-----0-----0--|
|---2-----2-----2-----2---|---0-----0-----0-----0----|
|-2-----2-----3-----3-----|-2-----2-----3-----3------|
|-------------------------|--------------------------|
|-------------------------|--------------------------|


|-------------------------|---------------------------|
|-1-----------------------|-------------------4-----4-|
|-------------------------|---------------------------|
|-------------------------|---------------------------|
|-3-----------------------|-3-------------------------|
|-------------------------|---------------------------|
|
|-------------------------|---------------------------|
|-----1-----1-----1-----1-|-----1-----1-----1-----1---|
|---0-----0-----0-----0---|---0-----0-----0-----0-----|
|-2-----2-----2-----2-----|-1-----1-----1-----1-------|
|-------------------------|---------------------------|
|-------------------------|---------------------------|


|---------------------------|--------------------------|
|-4-----------------4-----4-|-4-----------------3------|
|---------------------------|--------------------------|
|---------------------------|--------------------------|
|-1-------------------------|--------------------------|
|---------------------------|-6-----5-----4------------|
|
|---------------------------|--------------------------|
|-----2-----2-----2-----2---|-----1-----1-----1-----1--|
|---0-----0-----0-----0-----|---1-----1-----2-----2----|
|-1-----1-----1-----1-------|-1-----1-----1-----0------|
|---------------------------|--------------------------|
|---------------------------|--------------------------|


|-------------------------|-------------------------|
|-3-----------4-----1-----|-3-----------3-----------|
|-------------------------|-------------------------|
|-------------------1-----|-0-----------------------|
|-------------3-----------|-------------------------|
|-5-----------------------|-------------0-----------|
|
|-------------------------|-------------------------|
|-------------------------|-------------------------|
|---0-3---0-3---0-2---0-2-|---0-3---0-3-----2-----2-|
|-0-----0-----1-----------|-0-----0-----0-4---0-4---|
|-------------------3-----|-------------------------|
|-------------------------|-------------------------|


|-------------------3-----|--4------------------2--------|
|-------------------------|------------------------------|
|-0-----------------------|------------------------------|
|-------------------------|---------------1--------------|
|-------------------------|---------3-----------3--------|
|-5-----------------------|-(5)--------------------------|
|
|-------------------------|------------------------------|
|-----3-----3-----3-----3-|-------4-----4-----4-----4----|
|---3-----3-----4-----4---|-----5-----5-----5-----5------|
|-5-----5-----5-----5-----|--5------5-----5-----5--------|
|-------------------------|------------------------------|
|-------------------------|------------------------------|


|-3-----------------3-----|--4------------------2-----|
|-------------------------|---------------------------|
|-------------------------|---------------------------|
|-------------------------|---------------1-----------|
|-------------------------|---------3-----------3-----|
|-5-----------------------|-(5)-----------------------|
|
|-------------------------|---------------------------|
|-----3-----3-----3-----3-|-------4-----4-----4-----4-|
|---4-----4-----4-----4---|-----5-----5-----5-----5---|
|-5-----5-----5-----5-----|--5------5-----5-----5-----|
|-------------------------|---------------------------|
|-------------------------|---------------------------|


|-3-----------3-----------|-3-----------1--------------|
|-------------------------|----------------------------|
|-------------------------|----------------------------|
|-------------2-----------|-------------0--------------|
|-------------------------|-4--------------------------|
|-5-----------------------|----------------------------|
|
|-------------------------|-----0-----0----------------|
|-----3-----3-----2-----2-|-----------------3-----3----|
|---4-----4-----3-----3---|---2-----2-----2-----2------|
|-5-----5-----5-----5-----|-5-----5-----3-----3--------|
|-------------------------|----------------------------|
|-------------------------|----------------------------|


|-------------------------|-------------------------|
|-4-----------3-----------|-------------------------|
|-------------------------|-2-----------2-----2-----|
|-------------------------|-------------------------|
|-------------------------|-0-----------0-----------|
|-5-----------6-----------|-------------------------|
|
|-------------------------|-------------------------|
|-------------------------|-------------------------|
|-----3-----3-----4-----4-|-----2-----2-----2-----2-|
|---5-----5-----3-----3---|---3-----3-----2-----2---|
|-6-----6-----5-----5-----|-5-----5-----5-----4-----|
|-------------------------|-------------------------|


|-------------------5-----5-|-5-----------------5-----5--|
|---------------------------|----------------------------|
|---------------------------|----------------------------|
|-0-------------------------|----------------------------|
|-0-------------------------|-4--------------------------|
|-0-------------------------|----------------------------|
|
|-----------------1-----1---|-----3-----3-----3-----3----|
|-----------3---3-----3-----|---5-----5-----5-----5------|
|-----2---2---2-----2-------|-2-----2-----2-----2--------|
|-0-3---3-------------------|----------------------------|
|---------------------------|----------------------------|
|---------------------------|----------------------------|


|-5-----------4-----5-----|-7-----------------7-----|
|-------------------------|-------------------------|
|-------------------------|-------------------------|
|-0-----------------------|-------------------------|
|-------------2-----0-----|-------------------------|
|-------------------------|-6-----------------6-----|
|
|-----1-----1-----1-----1-|-----0-----0-----0-----0-|
|---3-----3-----3-----3---|---3-----3-----3-----3---|
|-2-----2-----1-----2-----|-4-----4-----4-----4-----|
|-------------------------|-------------------------|
|-------------------------|-------------------------|
|-------------------------|-------------------------|


|-8-----------7-----5-----|-4-----0-----1--------------|
|-------------------------|-------------------3--------|
|-------------------------|----------------------------|
|-------------------------|-2--------------------------|
|-0-----------------------|----------------------------|
|-------------------------|----------------------------|
|
|-----0-----0-----1-----2-|-------0-----1--------------|
|---1-----1-----3-----1---|-----0-----0-----0-3---0----|
|-2-----2-----4-----2-----|---1-----1-----1-----1------|
|-------------0-----1-----|----------------------------|
|-0-----------------------|----------------------------|
|-------------------------|-0--------------------------|


|-------------------------|-------5-----8-----5-----|
|-------------------------|-------------------------|
|-------------------------|-------------------------|
|-------2-----3-----0-----|-------------------------|
|-------------------------|-3-----------------------|
|-------------------------|-------------------------|
|
|-------------------------|-------5-----8-----5---0-|
|-----0-----0-----0-----0-|-----5-----5-----5-------|
|---1-----1-----1-----1---|---5-----5-----5-----5---|
|-------2-----3-----0-----|-------------------------|
|-------------------------|-------------------------|
|-0-----------------------|-0-----------------------|


|-------------------------|-------------------1---4----|
|-------------------------|---------------3-0---3------|
|-------2-----5-----2-----|-------1---4-1--------------|
|-------------------------|---3-0---3------------------|
|-------------------------|-2--------------------------|
|-------------------------|----------------------------|
|
|-------------------------|----------------------------|
|-------------1-----------|----------------------------|
|-------2-----------2-----|----------------------------|
|-----2-----2-----2-----2-|----------------------------|
|---3-----3-----3-----3---|----------------------------|
|-0-----------------------|-0--------------------------|


|-------------------------|-------2---5---8----11----14-|
|-------------------------|---4-1---4---7---10----13----|
|-------------------------|-2---------------------------|
|-------------------------|-----------------------------|
|-------------------------|-----------------------------|
|-2-----------------------|-----------------------------|
|
|-----------0---5---8p5---|-----------------------------|
|-------1---------5-----5-|-----------------------------|
|---2-----2---5-----------|-----------------------------|
|-----2-------------------|-----------------------------|
|-3-----------------------|-----------------------------|
|-------------------------|-0---------------------------|


|-------------------------|-4---1----------------------|
|-------------------------|---3---0-3------------------|
|-------------------------|-----------1-4---1----------|
|-------------------------|---------------3---0-3------|
|-------------------------|-----------------------2----|
|-------------------------|----------------------------|
|
|---------------1---4-1-7-|----------------------------|
|-----------3-0---3-------|-9--------------------------|
|---1---4-1---------------|----------------------------|
|-0---3-------------------|----------------------------|
|-------------------------|----------------------------|
|-0-----------------------|----------------------------|


|-------------------------|-------------------------|
|-------------------------|-------------------------|
|-------------------------|-------------------------|
|-0-----------------------|-------------------------|
|---------------2---0-----|-------------2-----0-----|
|-------------------------|-2-----------------------|
|
|-------------------------|-------------------------|
|-3---0-------------------|-------------------------|
|---1-----1---------------|-------------------------|
|-------3---0-3---0---0-3-|---0-2-3-2-0---0-3---0-3-|
|---------------2---0-----|-------------2-----0-----|
|-------------------------|-4-----------------------|


|-------------------------|----------------------------|
|-------------------------|----------------------------|
|-------------------------|----------------------------|
|-------------------------|----------------------------|
|-------------1-----0-----|----------------------------|
|-2-----------------------|-2-----------3--------------|
|
|-------------------------|----------------------------|
|-------------------------|----------------------------|
|-------------------------|-----------------2-----2----|
|---0-2-3-2-0---0-3---0-3-|---0-2-3-2-0----------------|
|-------------1-----0-----|---------------3-----3------|
|-4-----------------------|-4-----------5-----5--------|


|-------------------------|---------------------------|
|-------------------------|-------------------5-----5-|
|-------------------------|---------------------------|
|-------------2-----------|-2-------------------------|
|-------------------------|-0-------------------------|
|-0-----------2-----------|---------------------------|
|
|-------------------------|---------------------------|
|-------------------------|-----------1-----1-----1---|
|-----2-----2-----1-----1-|-----2---2-----2-----2-----|
|---3-----3-----2-----0---|---2---2-----2-----2-------|
|-2-----2-----2-----2-----|-3-------------------------|
|-------------------------|---------------------------|


|---------------------------|--------------------------|
|-5-----------------5-----5-|-5-----------6------------|
|---------------------------|--------------------------|
|---------------------------|--------------------------|
|---------------------------|-0------------------------|
|-6-------------------------|-------------0------------|
|
|---------------------------|--------------------------|
|-----3-----3-----3-----3---|-----1-----1-----3-----3--|
|---4-----4-----4-----4-----|---2-----2-----2-----2----|
|-2-----2-----2-----2-------|-2-----2-----3-----3------|
|---------------------------|--------------------------|
|---------------------------|--------------------------|


|-------------------3-----|-------------------3-----3-|
|-5-----------3-----------|---------------------------|
|-------------------------|-5-------------------------|
|-------------------------|---------------------------|
|-------------------------|-3-------------------------|
|-5-----------5-----------|---------------------------|
|
|-------------------------|-----------0-----0-----0---|
|-----1-----1-----0-----0-|-----1---1-----1-----1-----|
|---0-----0-----0-----0---|---0---0-----0-----0-------|
|-2-----2-----3-----3-----|-2-------------------------|
|-------------------------|---------------------------|
|-------------------------|---------------------------|


|-3-----------------3-----3-|-3-----------4-----5------|
|---------------------------|--------------------------|
|---------------------------|--------------------------|
|---------------------------|--------------------------|
|-2-------------------------|-3-----------2-----0------|
|---------------------------|--------------------------|
|
|-----1-----1-----1-----1---|-----0-----0-----0-----0--|
|---3-----3-----3-----3-----|---1-----1-----3-----1----|
|-0-----0-----0-----0-------|-0-----0-----1-----2------|
|---------------------------|--------------------------|
|---------------------------|--------------------------|
|---------------------------|--------------------------|


|-7-----------8-----------|-6-----------4-----------|
|-------------------------|-------------------------|
|-------------------------|-------------------------|
|-------------------------|-------------------------|
|-------------------------|-------------------------|
|-6-----------7-----------|-0-----------2-----------|
|
|-----0-----0-----5-----5-|-----1-----1-----0-----0-|
|---3-----3-----5-----5---|---3-----3-----3-----3---|
|-4-----4-----5-----5-----|-3-----3-----1-----1-----|
|-------------------------|-------------------------|
|-------------------------|-------------------------|
|-------------------------|-------------------------|


|-5-----------------5-----|--6------------------4--------|
|-------------------------|------------------------------|
|-------------------------|------------------------------|
|-------------------------|---------0-----3-----0--------|
|-0-----------------------|-(0)--------------------------|
|-------------------------|------------------------------|
|
|-----0-----0-----0-----0-|-------1-----1-----1-----1----|
|---1-----1-----2-----2---|-----3-----3-----3-----3------|
|-2-----2-----2-----2-----|--2------2-----2-----2--------|
|-------------------------|------------------------------|
|-------------------------|------------------------------|
|-------------------------|------------------------------|


|-5-----------------5-----|--6------------------4-----|
|-------------------------|---------------------------|
|-------------------------|---------------------------|
|-------------------------|---------0-----3-----0-----|
|-0-----------------------|-(0)-----------------------|
|-------------------------|---------------------------|
|
|-----0-----0-----0-----0-|-------1-----1-----1-----1-|
|---2-----2-----2-----2---|-----3-----3-----3-----3---|
|-2-----2-----2-----2-----|--2------2-----2-----2-----|
|-------------------------|---------------------------|
|-------------------------|---------------------------|
|-------------------------|---------------------------|


|-5-----------5-----------|-3-----------------3--------|
|-------------------------|----------------------------|
|-------------------------|----------------------------|
|-------------------------|----------------------------|
|-0-----------------------|-2-----------------3--------|
|-------------0-----------|----------------------------|
|
|-----0-----0-----1-----1-|-----1-----1-----1-----0----|
|---2-----2-----3-----3---|---3-----3-----3-----1------|
|-2-----2-----2-----2-----|-0-----0-----0-----0--------|
|-------------------------|----------------------------|
|-------------------------|----------------------------|
|-------------------------|----------------------------|


|-------------------------|-------------------------|
|-6-----6-----5-----5-----|-3-----------5-----6-----|
|-------------------------|-------------------------|
|-------------------------|-------------------------|
|-------------------------|-------------------------|
|-7-----9-----6-----7-----|-3-----------2-----0-----|
|
|-------------------------|-------------------------|
|-----5-----3-----3-----1-|-----0-----0-----0-----0-|
|---5-----4-----4-----2---|---2-----2-----2-----2---|
|-3-----3-----2-----2-----|-0-----0-----2-----3-----|
|-------------------------|-------------------------|
|-------------------------|-------------------------|


|-------------------------|-----------------------------|
|-5-----------5-----------|-----------1-----1-----1-----|
|-------------------------|-2-------2-----2-----2-------|
|-------------------------|-------2-----2-----2---------|
|-------------------------|-0---------------------------|
|-2-----------2-----------|-----------------------------|
|
|-------------------------|-----------------------------|
|-----1-----1-----0-----0-|-----------------------------|
|---2-----2-----1-----1---|-----2-----------------------|
|-2-----2-----0-----0-----|---2---2-----------2-----2---|
|-------------------------|-3---------------------------|
|-------------------------|-----------------------------|


|---------------------------|-------0---5---8-5-12-8------|
|-----3-----3-----3-----3---|---1---------5----------10---|
|---4-----4-----4-----4-----|-----2---5-------------------|
|-2-----2-----2-----2-------|-2---------------------------|
|---------------------------|-----------------------------|
|---------------------------|-----------------------------|
|
|---------------------------|-----------------------------|
|---------------------------|-----------------------------|
|---------------------------|-----------------------------|
|-2-----------------2-----2-|-2------------------2------2-|
|---------------------------|-----------------------------|
|-4-------------------------|-5---------------------------|


|---7---------------------------|-------0---5---8-5-12-8---------|
|-9------9------0-3-------------|---1---------5----------10------|
|-----10---7-10--------1--------|-2---2---5----------------------|
|-------------------3-(3)-2-0---|--------------------------------|
|-------------------------------|-3------------------------------|
|-------------------------------|--------------------------------|
|
|-------------------------------|--------------------------------|
|-------------------------------|--------------------------------|
|-------------------------------|--------------------------------|
|-2--------------------2------2-|-2------------------2------2----|
|-------------------------------|-0------------------------------|
|-0-----------------------------|--------------------------------|


|---7---------------------------|---0-5-8-5-0-------------|
|-9------9------0-3-------------|-------------------------|
|-----10---7-10--------1--------|-2-----------------------|
|-------------------3-(3)-2-0---|-------------7-----------|
|-------------------------------|-3-----------------------|
|-------------------------------|-------------------------|
|
|-------------------------------|-------------------5-----|
|-------------------------------|-----------------5---5---|
|-------------------------------|---------------5-------5-|
|-2--------------------2------2-|-2-----------7-----------|
|-------------------------------|-0-----------------------|
|-0-----------------------------|-------------------------|


|-------0-----------------|------5----|-5----*|
|-----1---1---------------|------5----|-5----*|
|---2-------2-------------|------5----|-5----*|
|-2-----------2-----------|-----------|------*|
|-------------------------|-0----0----|-0----*|
|-------------------------|-----------|------*|
|
|-------------------------|-----------|------*|
|-------------------------|------1----|-1----*|
|---------------2---------|------2----|-2----*|
|-------------2---2---2---|------2----|-2----*|
|-7-----------------3---3-|-0----0----|-0----*|
|-------------------------|-----------|------*|

www.vse-noti.narod.ru