Rambler's Top100
Главная / Архив / B / The Beatles / Yesterday
Ноты, аккорды и табулатуры для гитары
Автор Произведение Ноты (страницы)
The Beatles Yesterday 1
Табулатуры Аккорды Послушать (midi)
Да Нет Да
The Beatles - Yesterday



Табулатуры (табы)

  Q=90
                           $
                           $$
 4/4
  Gtr I
|-------------|------------||-------------------|
|----0--------|----0--0----||o------------------|
|-2-----2-----|-0----------||--2-0-0------------|
|----0-----2--|-2----------||--0-----0----------|
|-------4-----|-3----------||o-----------2-0----|
|-0-----------|-------3----||--3-------3-----3--|


|-----------0-2-3-|-2-----0-0-------|-----0-0---------|
|-----0-2-4-------|-----0---0-------|-----1---3-1-0---|
|-----------0-2-4-|---0-----0-------|---0-----------2-|
|-----1-2-4-------|-------------2-0-|-------------0---|
|---2-------------|-----------2-----|-3---------------|
|-2---------------|-0---------------|---------2-------|


                                             To Coda
|-----------------|-----------------|------------------||
|-1-----0-0-------|-----0-----------|-----0---0-------o||
|---------0-----2-|-0-------2-------|-0---0---------0--||
|-------0---0-----|---2---2-----2---|---2---2-----0----||
|---0-2-----------|---------0-4---4-|-3---------2-----o||
|-3-----------2---|-0---------------|---------3--------||


|-----------------|-0---2---3---2-0-|-2-----0-----0---|
|-0-------0-------|-----------------|-----1---3-------|
|-----2-------2---|---0---0---0-----|---2-------------|
|---1---1---1---1-|-2---0-----------|-0---------0---0-|
|-2-------0-------|---------3-------|-----------------|
|-----------------|-----------------|---------2-------|


|-----------------|-----------------|-0---2---3---2-0-|
|-0---------------|-0-------0-------|-----------------|
|-------------0-2-|-----2-------2---|---0---0---0-----|
|-----------0-----|---1---1---1---1-|-2---0-----------|
|-------0-2-------|-2-------0-------|---------3-------|
|-3-2-3-----------|-----------------|-----------------|


                            D.S.  &
                            D.S.
|-2-----0----2--|-3---------------||-3--7--5--0--|-3--7--7--(7)--|--3----*|
|-----1---3--1--|-----3---1---0---||-------------|-------0--(0)--|-!0----*|
|---2--------2--|-----4---2---0---||-------------|----0--0--(0)--|-!0----*|
|-0-------0-----|---0---0---0---0-||-2--0--------|-------5--(5)--|-!0----*|
|---------------|-----------------||-------4-----|-3-------------|-!2----*|
|---------------|-3---------------||-------------|---------------|-!3----*|

www.vse-noti.narod.ru