Rambler's Top100
Главная / Архив / Б / Бах / Прелюдия №1
Ноты, аккорды и табулатуры для гитары
Автор Произведение Ноты (страницы)
Бах Прелюдия №1 1 2 3
Табулатуры Аккорды Послушать (midi)
Да Нет Да
Бах - Прелюдия №1 / Bach - Prelude №1



Табулатуры (табы)

  Q=80
 4/4
  Gtr I
|---------0-----0---------0-----0-|---------1-----1---------1-----1--|
|-------1-----1---------1-----1---|-------3-----3---------3-----3----|
|-----0-----0---------0-----0-----|-----2-----2---------2-----2------|
|---2---------------2-------------|---0---------------0--------------|
|-3---------------3---------------|-3---------------3----------------|
|---------------------------------|----------------------------------|


|---------1-----1---------1-----1-|---------0-----0---------0-----0-|
|-------3-----3---------3-----3---|-------1-----1---------1-----1---|
|-----0-----0---------0-----0-----|-----0-----0---------0-----0-----|
|---0---------------0-------------|---2---------------2-------------|
|-2---------------2---------------|-3---------------3---------------|
|---------------------------------|---------------------------------|


|---------5-----5---------5-----5-|---------------------------------|
|-------5-----5---------5-----5---|---------3-----3---------3-----3-|
|-----2-----2---------2-----2-----|-------2-----2---------2-----2---|
|---2---------------2-------------|---0p4-----4-------0p4-----4-----|
|-3---------------3---------------|-3---------------3---------------|
|---------------------------------|---------------------------------|


|---------3-----3---------3-----3-|-------------------------------------|
|-------3-----3---------3-----3---|-----------1-----1-----------1-----1-|
|-----0-----0---------0-----0-----|---------0-----0-----------0-----0---|
|---0---------------0-------------|------2------2----------2------2-----|
|-2---------------2---------------|-2h3-(3)-----------2h3-(3)-----------|
|---------------------------------|-------------------------------------|


|-------------------------------------|---------------------------------|
|-----------1-----1-----------1-----1-|---------1-----1---------1-----1-|
|---------0-----0-----------0-----0---|-------2-----2---------2-----2---|
|------2------2----------2------2-----|-----0-----0---------0-----0-----|
|-0-3-(3)-----------0-3-(3)-----------|---0---------------0-------------|
|-------------------------------------|-2---------------2---------------|


|---------------------------------|---------------------------------|
|---------0-----0---------0-----0-|---------2-----2---------2-----2-|
|-------0-----0---------0-----0---|-------0-----0---------0-----0---|
|-----0-----0---------0-----0-----|-----2-----2---------2-----2-----|
|---2---------------2-------------|---1---------------1-------------|
|-3---------------3---------------|-3---------------3---------------|


|---------------------------------|---------------------------------|
|---------3-----3---------3-----3-|---------0-----0---------0-----0-|
|-------2-----2---------2-----2---|-------1-----1---------1-----1---|
|-----0-----0---------0-----0-----|---0h3-----3-------0h3-----3-----|
|---0---------------0-------------|---------------------------------|
|-1---------------1---------------|-1---------------1---------------|


|---------------------------------|---------1-----1---------1-----1-|
|---------1-----1---------1-----1-|-------1-----1---------1-----1---|
|-------0-----0---------0-----0---|-----2-----2---------2-----2-----|
|-----2-----2---------2-----2-----|---3---------------3-------------|
|---3---------------3-------------|---------------------------------|
|-0---------------0---------------|-0---------------0---------------|


|-----------1-----1-----------1-----1-|---------1-----1---------1-----1-|
|---------1-----1-----------1-----1---|-------0-----0---------0-----0---|
|------2------2----------2------2-----|-----0-----0---------0-----0-----|
|-0h3-(3)-----------0h3-(3)-----------|---0---------------0-------------|
|-------------------------------------|---------------------------------|
|-------------------------------------|-3---------------3---------------|


|---------0-----0---------0-----0-|---------0-----0---------0-----0-|
|-------1-----1---------1-----1---|-------1-----1---------1-----1---|
|-----0-----0---------0-----0-----|-----3-----3---------3-----3-----|
|---2---------------2-------------|---2---------------2-------------|
|-3---------------3---------------|-3---------------3---------------|
|---------------------------------|---------------------------------|


|---------0-----0---------0-----0-|---------------------------------|
|-------1-----1---------1-----1---|---------4-----4---------4-----4-|
|-----2-----2---------2-----2-----|-------2-----2---------2-----2---|
|---3---------------3-------------|-----4-----4---------4-----4-----|
|---------------------------------|---3---------------3-------------|
|-1---------------1---------------|-2---------------2---------------|


|---------------------------------|---------------------------------|
|---------3-----3---------3-----3-|---------3-----3---------3-----3-|
|-------5-----5---------5-----5---|-------4-----4---------4-----4---|
|-----3-----3---------3-----3-----|-----3-----3---------3-----3-----|
|---5---------------5-------------|---5---------------5-------------|
|-4---------------4---------------|-3---------------3---------------|


|---------0-----0---------0-----0-|---------1-----1---------1-----1-|
|-------1-----1---------1-----1---|-------1-----1---------1-----1---|
|-----0-----0---------0-----0-----|-----0-----0---------0-----0-----|
|---2---------------2-------------|---0---------------0-------------|
|---------------------------------|---------------------------------|
|-3---------------3---------------|-3---------------3---------------|


|---------1-----1---------1-----1-|---------2-----2---------2-----2-|
|-------0-----0---------0-----0---|-------1-----1---------1-----1---|
|-----0-----0---------0-----0-----|-----2-----2---------2-----2-----|
|---0---------------0-------------|---1---------------1-------------|
|---------------------------------|---------------------------------|
|-3---------------3---------------|-3---------------3---------------|


|---------3-----3---------3-----3-|---------1-----1---------1-----1-|
|-------1-----1---------1-----1---|-------1-----1---------1-----1---|
|-----0-----0---------0-----0-----|-----0-----0---------0-----0-----|
|---2---------------2-------------|---0---------------0-------------|
|---------------------------------|---------------------------------|
|-3---------------3---------------|-3---------------3---------------|


|---------1-----1---------1-----1-|---------0-----0---------0-----0-|
|-------0-----0---------0-----0---|-------1-----1---------1-----1---|
|-----0-----0---------0-----0-----|-----3-----3---------3-----3-----|
|---0---------------0-------------|---2---------------2-------------|
|---------------------------------|-3---------------3---------------|
|-3---------------3---------------|---------------------------------|


|-----------1---------------------|-----------1---------------------|-------*|
|---1-----1---1---1---------------|---0---0-3---3---3-----0---------|-^1----*|
|-------2-------2---2---2---------|-----0---------4---4-0-----------|-^0----*|
|-----3---------------3---3-0-3-0-|-------------------------0-3-2-0-|-^2----*|
|-3-------------------------------|-3-------------------------------|-^3----*|
|---------------------------------|---------------------------------|-------*|

www.vse-noti.narod.ru