Rambler's Top100
Главная / Архив / Б / Бах / Фуга ми минор
Ноты, аккорды и табулатуры для гитары
Автор Произведение Ноты (страницы)
Бах Фуга ми минор 1
Табулатуры Аккорды Послушать (midi)
Да Нет Да
Бах - Фуга ми минор / Bach - Fugue In Em



Табулатуры (табы)

  Q=180
 4/4
  Gtr I
|----------------|-----------------|-----------------|------------------|
|--0---0---0---0-|---0---0---0---0-|---0---0---0---0-|---0---0---0---0--|
|----2---0-------|-----------------|-0---------------|------------------|
|------------4---|-2---1---2---4---|-------------1---|-2---1---2---4----|
|----------------|-----------------|-----2---4-------|------------------|
|----------------|-----------------|-----------------|------------------|


|---0---0---0---0-|---0---0---0---0-|---0---0---0---0-|---0---0---0---0-|
|-----3---1---0---|-------------0---|-1---------------|-------------0---|
|-0---------------|-2---1---2-------|-------------1---|-2---1---2-------|
|-----------------|-----------------|-----2---4-------|-----------------|
|-----------------|-----------------|-----------------|-----------------|
|-----------------|-----------------|-----------------|-----------------|


|-----0-------0---|-1-------1-------|-----------------|-0-------0-------|
|-1-------1-------|-----------------|-3-------3-------|-----------------|
|-----------------|-----2-------2---|-----4-------4---|-----0-------0---|
|---2---2---2---2-|---0---0---0---0-|---5---5---5---0-|---2---2---2---2-|
|-0-------0-------|-----------------|-5-------5-------|-3-------3-------|
|-----------------|-----------------|-----------------|-----------------|


|-----------------|-----------------|-----------------|-----------------|
|-1-------1-------|-4-------4-------|-0-------0-------|-----------------|
|-----2-------2---|-----------------|-----0-------0---|-2-------2-------|
|---4---4---4---4-|-----4-------4---|---2---2---2---2-|-----1-------1---|
|-3-------3-------|---6---6---6---6-|-----------------|---2---2---2---2-|
|-----------------|-7-------7-------|-0-------0-------|-2-------2-------|


|-----------------|-----------------|----7----7---7---7-|----7---7----7---7-|
|-----------------|-----------------|------10---8---7---|---------------7---|
|-0-------0-------|---2---2---2-----|-------------------|------8--------8---|
|-----2-------2---|-4-------4-------|---------------7---|-------------------|
|---2---2---2---2-|-----3-------3-0-|-10--------7-------|-10---9---10-------|
|-0-------0-------|-2-------2-------|-------------------|-------------------|


|---7---7----7---7-|----7---7---7---7-|---7---7---7---7-|---7---7---5---5-|
|-8----------------|--------------7---|-8---7---5-------|---------5-------|
|-9------------8---|------8---9---8---|-------------7---|-5---7-------5---|
|-----9---11-------|------------------|-9-------5-------|-7---------------|
|--------------9---|-10---9---7-------|-7---------------|-----------------|
|------------------|------------------|-----------------|-----------------|


|---5---5---5---5-|---5---5---3---3-|---3---3---3---3-|---3---3---2---2-|
|-7---5-----------|---------3-------|-5---3-----------|-----------------|
|---------7---5---|-4---5-------4---|---------5---4---|-2---4---5---2---|
|-----------------|-5---------------|-----------------|-4---------------|
|-5-------9-------|-----------------|-3---------------|-----------------|
|-----------------|-----------------|---------0-------|-----------------|


|---2---2---2---2-|---2---2---0---0-|---2---2---------|-----------0---0-|
|-4---------------|-----------------|-----------5---5-|---4---4-0-------|
|-----5---4---2---|-----2---4---0---|-----------------|-5---5-------0---|
|-----------------|-5---------------|-4---4---2---2---|-4---------------|
|-2---------------|-------------2---|-3---3---2---2---|-0---------------|
|-----------------|-0---------------|-----------------|-----------------|


|---2---2---------|-0----*|
|-----------5---4-|-0----*|
|-----------------|-0----*|
|-4---4---2-------|------*|
|-3---3---2---2---|------*|
|-----------------|-0----*|

www.vse-noti.narod.ru