Rambler's Top100
Главная / Архив / Б / Бах / Скерцо (шутка)
Ноты, аккорды и табулатуры для гитары
Автор Произведение Ноты (страницы)
Бах Скерцо (шутка) 1 2
Табулатуры Аккорды Послушать (midi)
Да Нет Да
Примечание: из репертуара - Виктор Зинчук, Ванесса Мей (Vanessa Mae).
Бах - Скерцо (шутка) / Bach - Scherzo



Табулатуры (табы)

    Q=110
   1/4      2/4
    Gtr I
||--5-8p5-||---5---------|-------------|-----------------|------5-8p5--|
||o-5-----||-5---5---5---|---------1---|-0---0-----0-3p0-|-1----5------|
||--5-----||-------5---5-|-2-----2---2-|---2---2-1-------|---2--5------|
||--------||-------------|-----2-------|-0---------------|-------------|
||o-0-----||-------------|-0---0-------|-----------------|-0----0------|
||--------||-------------|---0---------|---------0-------|-------------|


|-0-5-0---0---|-----------|-------5---|---------------|-------8---|
|-------1---1-|-----1p0-1-|-1p0-1-----|-1h3p1-0-5p4-5-|-5p4-5-5-5-|
|-------------|-2---2---2-|-2---2-5-5-|-----0-0-0---0-|-------5-5-|
|-------------|-----2---2-|-0---0-4-4-|---------------|-4---4-----|
|-------------|-0---0---0-|-------0-0-|---------3---3-|-0---0-0-0-|
|-------------|---0-------|-2---2-----|-----3-3-------|-----------|


|-0-2-0-----0-3p0-|-2p0-2p0---2-5p2-|-3p2-3p2-0-3p0---|-0-5p0---0-7p0---|
|-----0-4-0-------|-1-------4-------|-0-------0-----4-|-------4-------4-|
|-------4-0-------|-2-------2-------|-0-------0-------|-----------------|
|-----------------|-----------------|-----------------|-----------------|
|-----2-2---------|-0-------2-------|-----------------|-0---------------|
|---------0-------|-----------------|-0-------0-------|---------0-------|


|-0-8-0---0-8-7-5-|-7-3-2-0-3-2h3p2-||
|-------4---------|-0-------------4-||
|-----------------|-0-------------2-||
|-----------------|-----------------||
|-0---------------|---------------2-||
|---------0-------|-0---------------||


 1/4                 2/4
                                        <
|-0---||-||--0-3p0-||-------------|---------|
|-0--o||-||o-0-----||---5p0---0---|---------|
|-0---||-||--0-----||-0-----0---0-|-----3-2-|
|-----||-||--------||-------------|-2---2-2-|
|----o||-||o-------||-------------|-----4-4-|
|-0---||-||--0-----||-------------|---0-----|


  <
|-----0-3-1p0-|-1---1-5-1-|---1---------|---------0---|-----------------|
|-3-2---2-2---|-3-3-3-----|-3---3-0-3-0-|-------1---1-|-3---3-----3-6p3-|
|-0-0---0-0---|-2-2-2-----|-------------|-0-----------|---5---5-4-------|
|-------------|-0-0-0-----|-------------|-------------|-3---------------|
|-0-0---0-0---|-----------|-------------|-------------|-----------------|
|-------------|-----------|-------------|---3-0-------|---------3-------|


            <
|-0---0-----0-----|---1-------3-----|
|---3---3-1---1p0-|-1---1p0-1---1p0-|
|---------3-------|-0-------0-------|
|-----------------|-----------------|
|-3-------3-------|-----------------|
|-----------------|-----------------|


|---5-------5-----|---------0-------|----------|
|-------------8p6-|-8p5-------3-5-3-|-1--5p3-5-|
|-5---5-4-5-------|-----7-5-------4-|-0--5---5-|
|-3---------------|---------------3-|-2--------|
|---------7-------|-0---------------|-3--3-----|
|---------0-------|---------------3-|----------|


|-------8---|---------------|-------7---|---------5-8p5--|
|-5p3-5-5-5-|-5h6p5-3-------|---------3-|-3h5p3----------|
|-5---5-5-5-|-----5-4-7p5-7-|-7p5-7-7-4-|-----4-5-5------|
|-----------|---------6---6-|-6---6-6---|-------7-7------|
|-3-----0---|---------------|-----------|-----0---0------|
|-----------|-----3---0-----|-7-----0---|----------------|


|-3p1-1---5p3---0-|-------1p0-----|-----1-----------|---------|
|-----3-------6---|-3---------3-1-|---3---3---------|---------|
|-----2-----------|---2-----------|-3-------3p2-3-2-|-1-------|
|-0-----0---------|---3-0---------|-0-------0-------|---2-3-2-|
|-----------------|---------------|-----------------|---------|
|-----------------|-1-------------|-----------------|-0-0-0-0-|


                                                1/4
    <
|-------------|-----------0---0-|-5-0---------||-------||-^5--*|
|-----0-3-1p0-|-1---0h1h3-1-1---|-----3p1-0-1-||------o||-^5--*|
|-2-1---1-1---|-2-2-------2-2---|-5-2-1-------||-4p2---||-^5--*|
|-2-2---2-2---|-2-2-------------|-----2-------||---2---||-^7--*|
|-------------|-----------------|-0-3---------||---0--o||-^7--*|
|-0-0---0-0---|-0-0-------0-0---|-----0-------||-------||-^5--*|


www.vse-noti.narod.ru