Rambler's Top100
Главная / Архив / A / Anonymous / Gypsy Air
Ноты, аккорды и табулатуры для гитары
Автор Произведение Ноты (страницы)
Anonymous Gypsy Air 1
Табулатуры Аккорды Послушать (midi)
Да Нет Да
Anonymous - Gypsy Air (Фламенко, испанское, народное)



Табулатуры (табы)

   4/4
    Gtr I
||--^0-----3-2-0-|-^2-----2-0---|-^0-----------|-----------|-0-----0-2-3--|
||o-^0-----------|-^3---------3-|-^1-----5-3---|-^0--------|-1------------|
||--^0-----------|-^2-----------|-^0---------5-|-^4--------|-0------------|
||--^2-----------|-^0-----------|-^2-----------|-^4--------|-2------------|
||o-^2-----------|--------------|-^3-----------|-^2--------|-3------------|
||--^0-----------|--------------|--------------|-----------|--------------|


|-^0---------|-------------|-^0----|------------------|
|-^0------0--|-^1----^0----|-^0----|-----------2-3-4--|
|-^0---------|-^0----^2----|-^0----|---4-3-4-5--------|
|-^2---------|-^2----^1----|-^2----|------------------|
|-^2---------|-^3----^2----|-^2----|------------------|
|-^0---------|-------------|-^0----|-0----------------|


|-^0-----3-2-0-|-^2-----2-0---|-^0-----------|-----------|-^0-0----0-2-3-|
|-^0-----------|-^3---------3-|-^1-----5-3---|-^0--------|-^1-1----------|
|-^0-----------|-^2-----------|-^0---------5-|-^4--------|-^0-0----------|
|-^2-----------|-^0-----------|-^2-----------|-^4--------|-^2-2----------|
|-^2-----------|--------------|-^3-----------|-^2--------|-^3-3----------|
|-^0-----------|--------------|--------------|-----------|---------------|


|-^0-0--------|-------------|-^0--------|
|-^0-0-----0--|-^1----^0----|-^0--------|
|-^0-0--------|-^0----^2----|-^0--------|
|-^2-2--------|-^2----^1----|-^2--------|
|-^2-2--------|-^3----^2----|-^2--------|
|-^0-0--------|-------------|-^0--------|


                                                        4x
||------------------|-0--------------|------------------||
||o-----------------|---0---0--------|---0---0---------o||
||----4-3-4-5-4-3-4-|-----0----0---0-|-----0----0---0---||
||------------------|-------2----2---|-------2----2-----||
||o-----------------|-------2--------|-------2---------o||
||--0---------------|-0--------------|-0----------------||

www.vse-noti.narod.ru