Rambler's Top100
Главная / Архив / А / Альбенис / Танго
Ноты, аккорды и табулатуры для гитары
Автор Произведение Ноты (страницы)
Альбенис Танго 1 2 3
Табулатуры Аккорды Послушать (midi)
Да Нет Да
Альбенис - Танго / Albeniz - Tango



Табулатуры (табы)

Настройка - E H G D A D
  Q=50                                                  H.=H
 2/4
  Gtr I
|------5---|------5---|--------------|-5------10--12--|-14-9-12-10-7-(7)-|
|------7---|------7---|-7-7-7-10-8-7-|-7--------------|------------6h=7--|
|----------|----------|--------------|--------11-(11)-|---------11-------|
|------7---|------7---|--------5-7---|-0--6-7---------|--0---------------|
|----0---0-|----0---0-|------------0-|---------0------|------------6-----|
|-0--------|-0--------|-0------------|----------------|------------------|


    Q=50
|--------3h=5--|-7--9-12-10-|-10-9---(9)-12----|-10-----9--3-|-7-5---(5)-10--|
|-8------5-(5)-|---10-----0-|--8------------12-|--8-10-10--5-|-6-7---(7)-----|
|-6------------|-0----------|------------12-12-|--9-11-11----|---------------|
|----6-7-------|-------7----|------5--7--11----|--7----------|-----6--7------|
|-7------0-----|-4--------0-|--7----------0----|-------[0]-0-|------------0--|
|--------------|------------|------------------|-------------|-0-------------|


|-10-9-7-9-7-|-10--------------|---7-10-10-9-7-|-10-------14-|-14-12-9-10-7--|
|--7-----8---|----7---8-7----7-|-8-------------|--7----------|-------8--9----|
|--7-----7---|--7-------7-10---|-7---------0---|--7-------13-|-14---------7--|
|------------|-----------------|---------------|--------9-12-|-11----8--9----|
|--------8---|------9----------|---------------|----8-9------|---------------|
|--9---------|--9--------------|-9-------------|--9----------|---------------|


|-12-9-------9-|-12-10-9-9-7-|-5------------|---------------|--------------|
|-10---10-12---|-10------9---|--------------|---------------|---------3-5--|
|--9-----------|-10------7---|-6------------|---------------|--------------|
|------11------|-------------|---6-7-11-9-7-|-4-4-4-4-7-5-4-|-7---[7]-4----|
|-------9------|---------7---|-0------------|-0-----------0-|-9-0-----0----|
|-11-----------|--9----------|--------------|-0-------------|-0------------|


|-------------|------------|---------|-------------|-----2-0-|
|-7---5-3-0---|------------|-0-2-5-3-|-3-2---------|-2-3-----|
|---6---------|-0------0-3-|-0-3-6-0-|-3-------3-5-|-----3---|
|-7-----4-3-4-|--------2-4-|---2-5---|-2---2-4-2---|-4-------|
|---------6---|-4--1-2-----|-4-----2-|-----------0-|-1-------|
|-0-----------|-2----------|---------|-4-----------|-----4---|


|---------10-|-9-12-14-12----|-10------------|-----------|-------------|
|-2-3--------|-0----------12-|--7-6-7-10-8-7-|-2-5-7-5-0-|-3-----------|
|------------|-0-------------|--7----------7-|-4-----6-0-|-4-----------|
|-3-4---0----|---------------|---------------|-5---------|-4-3-4-7-5-4-|
|-2--------9-|---------------|---------------|-2---------|-2-----------|
|-----4------|-9-------------|--9------------|-----------|-------------|


|-7-9-10-9---|-6---------6-|-4-6--9-7-6-4-|-9------6-|-7-9--13-13-11-9-|
|-7--------7-|-7-----------|-6------------|-7--------|-6-----------0---|
|-7----------|-6-----------|-4-6----8-6-4-|-6--5-6---|-6---------------|
|-6----------|-------------|--------------|----------|-4---------------|
|------------|-4-3-4-8-6-4-|-4----------4-|--------4-|-----------------|
|------------|-------------|--------------|-8--------|-----------------|


|-6---------------|-7-------7---|-6-7-8-9-12-10-9-|----9-13-13-11----|
|---4-6---4-2-4-7-|-7-6-4---6---|-7----------11---|-12----------0-14-|
|-6-------3-------|-----------6-|-----------------|--9---------------|
|-----------------|---------6---|-----------------|------------------|
|-------4---------|-------4-----|-----------------|--9---------------|
|-4---------------|-4-----------|-4---------------|---------------11-|


|----------------|-------10----9-|-2--2-5-3-|-2-----------|-----------------|
|-11--10-/15--12-|-10------------|-2--4-----|---5-/12-5-6-|-7-7-7-7-10-8-7--|
|-----11---------|----12----10---|-3--5-----|-2-------6---|-7---------------|
|-11--10---------|-11--------9---|-4--------|-2-------5---|-7----------7----|
|--9-------------|-10------------|----2-----|---------0---|-----------------|
|------0---------|----------11---|----------|-------------|-0---------------|


|-5------10--12--|-14-9-12-10-7-(7)-|
|-7--------------|------------6h=7--|
|--------11-(11)-|---------11-------|
|-0--6-7---------|--0---------------|
|---------0------|------------6-----|
|----------------|------------------|


|--------3h=5--|-7--9-12-10-|-10-9---(9)-12-----|
|-8------5-(5)-|---10-----0-|--8------------12--|
|-6------------|-0----------|------------12-12--|
|----6-7-------|-------7----|------5--7--11-----|
|-7------0-----|-4--------0-|--7----------0-----|
|--------------|------------|-------------------|


|-10-----9--3-|-7-5---(5)-10-|-10----------10-12-|
|--8-10-10--5-|-6-7---(7)----|-------10-11-------|
|--9-11-11----|--------------|--9-10-------------|
|--7----------|-----6--7-----|-------------------|
|-------[0]-0-|------------0-|-------------------|
|-------------|-0------------|--8----------------|


|-15-13-8-5-7-5-----|-6-------6-9-|
|---------------8-6-|-----7-8-----|
|-------------------|-6-7---------|
|-------------------|-------8-----|
|--0----------------|-------------|
|-------------------|-5-----------|


|-12-10------5-3--2-|-2-3-5-3-5-3-2-|-2-/7---0--|-----------|
|----------7---3--3-|-4-------------|-0----7-0--|---8-7-7-5-|
|-11----10-----3--2-|-5-------------|-2------0--|---6-6-6---|
|-------------------|---------------|--------2--|---8-7-7-5-|
|----------0--------|-2-------------|-----------|-0---------|
|--0----------------|---------------|-2---------|-----------|


|------5---|------------|--------|------*|
|------7---|------------|-[7]----|------*|
|----------|------------|-[7]----|------*|
|------7---|------[7]---|-[7]----|------*|
|----0---0-|----0-----0-|--------|-5----*|
|-0--------|-0----------|--0-----|-0----*|

www.vse-noti.narod.ru