Rambler's Top100
Главная / Архив / А / Альбенис / Астурия
Ноты, аккорды и табулатуры для гитары
Автор Произведение Ноты (страницы)
Альбенис Астурия 1 2 3 4 5 6 7 8 9
Табулатуры Аккорды Послушать (midi)
Да Нет Да
Альбенис - Астурия (легенда) / Albeniz - Asturias (leyenda)



Табулатуры (табы)

|---------------------------|
|---0---0----0---0---0----0-|
|---------------------------|
|-----9---10---7---9--------|
|-7--------------------10---|
|---------------------------|


|---------------------------|---------------------------|
|---0---0----0---0---0----0-|---0---0----0---0---0----0-|
|---------------------------|---------------------------|
|-----9---10---7---9--------|-----9---10---7---9--------|
|-7--------------------10---|-7--------------------10---|
|---------------------------|---------------------------|


|---------------------------|---------------------------|
|---0---0----0---0---0----0-|---0---0----0---0---0----0-|
|---------------------------|---------------------------|
|-7------------7------------|-----9---10---7---9--------|
|-----9---10-------9---10---|-7--------------------10---|
|---------------------------|---------------------------|


|----------------------------|
|---0---0----0---0---0----0--|
|----------------------------|
|-----9---10---7---9---------|
|-7--------------------10----|
|----------------------------|


|---------------------------|
|---0---0----0---0---0----0-|
|---------------------------|
|-----9---10---7---9--------|
|-7--------------------10---|
|---------------------------|


|---------------------------|---------------------------|
|---0---0----0---0----0---0-|---0---0----0---0---0---0--|
|---------------------------|---------------------------|
|-7-------------------------|-----9---10---7---9--------|
|-----9---10---7------------|----------------------9----|
|------------------10---8---|-7-------------------------|


|--------------------------|--------------------------|
|---0---0----0---0---0---0-|---0---0---0---0----0---0-|
|--------------------------|----------------------7---|
|-----9---10---7---9-------|---------7---9---10-------|
|----------------------9---|-----9--------------------|
|-7------------------------|-7------------------------|


|----------------------------|
|---0----0---0---0----0---0--|
|----------------------------|
|-9---10---7---9-------------|
|------------------10---9----|
|----------------------------|


|--------------------------|
|---0---0----0---0---0---0-|
|--------------------------|
|-----9---10---7---9-------|
|----------------------9---|
|-7------------------------|


|--------------------------|---------------------------|
|---0---0----0---0---0---0-|---0---0---0----0---0---0--|
|--------------------------|------------------7--------|
|-----9---10---7---9-------|-----7---9---10-------9----|
|----------------------9---|---------------------------|
|-7------------------------|-7-------------------------|


|---------------------------|-----7-----7-----7-----7-----7-----7--|
|----0---0---0----0---0---0-|---0-----0-----0-----0-----0-----0----|
|---------------------------|-------4-----5-----------4------------|
|-10---7---9--------7-------|-------------------7-----------5------|
|--------------10-------9---|-7------------------------------------|
|---------------------------|--------------------------------------|


|-----7-----7-----7-----7-----7-----7-|-----7-----7-----7-----7-----7-----7-|
|---0-----0-----0-----0-----0-----0---|---0-----0-----0-----0-----0-----0---|
|-------4-----5-----------4-----------|-------4-----5-----------4-----------|
|-------------------7-----------5-----|-------------------7-----------5-----|
|-7-----------------------------------|-7-----------------------------------|
|-------------------------------------|-------------------------------------|


|-----7-----7-----7-----7-----7-----7-|-----7-----7-----7-----7-----7-----7-|
|---0-----0-----0-----0-----0-----0---|---0-----0-----0-----0-----0-----0---|
|-------------0-----------------------|-------4-----5-----------4-----------|
|-7-----4-----------7-----4-----5-----|-------------------7-----------5-----|
|-------------------------------------|-7-----------------------------------|
|-------------------------------------|-0-----------------------------------|


|-----7-----7-----7-----7-----7-----7-|-----7-----7-----7-----7-----7-----7-|
|---0-----0-----0-----0-----0-----0---|---0-----0-----0-----0-----0-----0---|
|-------4-----5-----------4-----------|-------4-----5-----------4-----------|
|-------------------7-----------5-----|-------------------7-----------5-----|
|-7-----------------------------------|-7-----------------------------------|
|-------------------------------------|-------------------------------------|


|-----7-----7-----7-----7-----7-----7-|-^7--------------------------------|
|---0-----0-----0-----0-----0-----0---|-^7---0-0----0-0---0-0---0-0---0-0-|
|-------------------------------------|-^8--------------------------------|
|-7-----4-----5-----------------------|-^9-9-----10-----7-----9-----------|
|-------------------7-----5-----------|-^9--------------------------9-----|
|-------------------------------8-----|-^7--------------------------------|


|-^7--------------------------------|-^7--------------------------------|
|-^7---0-0----0-0---0-0---0-0---0-0-|-^7---0-0---0-0---0-0----0-0---0-0-|
|-^8--------------------------------|-^8--------------------------7-----|
|-^9-9-----10-----7-----9-----------|-^9-------7-----9-----10-----------|
|-^9--------------------------9-----|-^9-9------------------------------|
|-^7--------------------------------|-^7--------------------------------|


|---------------------------------------|-^7--------------------------------|
|---0-0----0-0---0-0---0-0----0-0---0-0-|-^7---0-0----0-0---0-0---0-0---0-0-|
|---------------------------------------|-^8--------------------------------|
|-9-----10-----7-----9------------------|-^9-9-----10-----7-----9-----------|
|--------------------------10-----9-----|-^9--------------------------9-----|
|---------------------------------------|-^7--------------------------------|


|-^7--------------------------------|-^7--------------------------------|
|-^7---0-0----0-0---0-0---0-0---0-0-|-^7---0-0---0-0---0-0----0-0---0-0-|
|-^8--------------------------------|-^8--------------------------7-----|
|-^9-9-----10-----7-----9-----------|-^9-------7-----9-----10-----------|
|-^9--------------------------9-----|-^9-9------------------------------|
|-^7--------------------------------|-^7--------------------------------|


|---------------------------------------|-^12---------------------------------|
|---0-0----0-0---0-0---0-0----0-0---0-0-|-^-0---0-0----0-0---0-0---0-0----0-0-|
|---------------------------------------|-^-0---------------------------------|
|-9-----10-----7-----9------------9-----|-----9-----10-----7-----9------------|
|--------------------------10-----------|------------------------------10-----|
|---------------------------------------|-^-0---------------------------------|


|-^12---------------------------------|-^12---------------------------------|
|-^-0---0-0----0-0---0-0---0-0----0-0-|-^-0---0-0----0-0---0-0---0-0----0-0-|
|-^-0---------------------------------|-^-0---------------------------------|
|-----9-----10-----7-----9------------|-----9-----10-----7-----9------------|
|------------------------------10-----|------------------------------10-----|
|-^-0---------------------------------|-^-0---------------------------------|


|---------------------------------------|
|---0-0---0-0----0-0---0-0---0-0----0-0-|
|---------------------------------------|
|-7------------------7------------------|
|-------9-----10-----------9-----10-----|
|---------------------------------------|


|-^12------8------8-----8------8------8-|
|-^-8-----------------------------------|
|-^-9----9------9-----9------9------9---|
|-^-8-10-----12-----9-----10------------|
|-^10----------------------------10-----|
|-^-8-----------------------------------|


|-^12------8------8-----8------8------8-|
|-^-8-----------------------------------|
|-^-9----9------9-----9------9------9---|
|-^-8-10-----12-----9-----10------------|
|-^10----------------------------10-----|
|-^-8-----------------------------------|


|-^12------8------8-----8------8------8-|
|-^-8-----------------------------------|
|-^-9----9------9-----9------9------9---|
|-^-8-10-----12-----9-----10------------|
|-^10----------------------------10-----|
|-^-8-----------------------------------|


|-----8-----8------8-----8-----8-----8-|-^7-----7------7-----7-----7-----7-|
|---7-----7------7-----7-----7-----7---|-^7--------------------------------|
|--------------------------------------|-^8---8------8-----8-----8-----8---|
|-7------------------7-----------------|-^9-9-----10-----8-----9-----------|
|-------9-----10-----------7-----9-----|-^9--------------------------9-----|
|--------------------------------------|-^7--------------------------------|


|-^-8------8------8-----8------8------8-|-^7-----7------7-----7-----7-----7-|
|-^-8-----------------------------------|-^7--------------------------------|
|-^-9----9------9-----9------9------9---|-^8---8------8-----8-----8-----8---|
|-^-8-10-----12-----9-----10------------|-^9-9-----10-----8-----9-----------|
|-^10----------------------------10-----|-^9--------------------------9-----|
|-^-8-----------------------------------|-^7--------------------------------|


|-^-8------8------8-----8------8------8-|-^7-----7------7-----7-----7------7-|
|-^-8-----------------------------------|-^7---0------0-----0-----0------0---|
|-^-9----9------9-----9------9------9---|-^8---------------------------------|
|-^-8-10-----12-----9-----10------------|-^9-9-----10-----7-----9------------|
|-^10----------------------------10-----|-^9--------------------------10-----|
|-^-8-----------------------------------|-^7---------------------------------|


|-----7-----7------7-----7-----7------7-|
|---0-----0------0-----0-----0------0---|
|---------------------------------------|
|-7------------------7------------------|
|-------9-----10-----------9-----10-----|
|---------------------------------------|


|-----7-----7------7-----7-----7------7-|
|---0-----0------0-----0-----0------0---|
|---------------------------------------|
|--------------------7------------------|
|-7-----9-----10-----------9-----10-----|
|---------------------------------------|


|-----7-----7------7-----7------7-----7-|----------------------------|
|---0-----0------0-----0------0-----0---|---0---0----0---0---0----0--|
|---------------------------------------|----------------------------|
|---------------------------------------|-----9---10---7---9---------|
|-7-----9-----10-----7------------------|----------------------10----|
|--------------------------10-----8-----|-7--------------------------|


|---------------------------|---------------------------|
|---0---0----0---0---0----0-|---0---0----0---0---0----0-|
|---------------------------|---------------------------|
|-7------------7------------|--------------7------------|
|-----9---10-------9---10---|-7---9---10-------9---10---|
|---------------------------|---------------------------|


|----------------------------|
|---0---0----0---0----0---0--|
|----------------------------|
|----------------------------|
|-7---9---10---7-------------|
|------------------10---8----|


|--------------------------------------|
|-----7-----7-----7------7-----7-----7-|
|---8-----8-----8------8-----8-----8---|
|-------------9-----10-----8-----9-----|
|-------9------------------------------|
|-7------------------------------------|


|-----0------0------0-----0-----0------0-|
|---8------8------8-----8-----8------8---|
|---------------------7------------------|
|--------------10-----------9-----10-----|
|-------10-------------------------------|
|-7--------------------------------------|


|--------------------------------------|
|-----7-----7-----7------7-----7-----7-|
|---8-----8-----8------8-----8-----8---|
|-------------9-----10-----8-----9-----|
|-------9------------------------------|
|-7------------------------------------|


|-----0------0------0-----0-----0------0-|
|---8------8------8-----8-----8------8---|
|---------------------7------------------|
|--------------10-----------9-----10-----|
|-------10-------------------------------|
|-7--------------------------------------|


|---------------------------------------|
|-----7-----7-----7------7-----7------7-|
|---8-----8-----8------8-----8------8---|
|-------------9-----10-----8-----10-----|
|-------9-------------------------------|
|-7-------------------------------------|


|---------------------------------------|
|-----7------7-----7------7-----7-----7-|
|---8------8-----8------8-----8-----8---|
|-9-----10-----8-----10-----9-----------|
|---------------------------------9-----|
|---------------------------------------|


                                               Q=70
|--------------|-------------11-14-|-19------|--------|-7----5-7--|
|------------7-|-12-------12-------|---------|-0------|-----------|
|----------8---|-------11----------|---------|--------|-4----2-4--|
|--------9-----|----13-------------|---------|-4------|-----------|
|------9-------|-------------------|---------|-6------|-----------|
|-7-11---------|-------------------|---------|-7------|-----------|


|-10----7h8p7-5-|-7------|----14----|-7----5-7-|-10----7h8p7-5--|
|---------------|--------|----------|----------|----------------|
|--7------------|--------|-8--------|----------|--7-------------|
|-------9-----7-|-9------|-9--------|-9----7-9-|-------9-----7--|
|---------------|--------|-9--------|----------|----------------|
|---------------|--------|-7--------|----------|----------------|


|-7------|----10----|-7----6--|-(6)--3h5p3-2-0-3-|-2----|
|--------|-0--------|---------|------------------|------|
|--------|-0--------|---------|------------------|------|
|-9------|-0--------|-9----8--|-(8)--5-----4-2-5-|-4----|
|--------|----------|---------|------------------|------|
|--------|-3--------|---------|------------------|------|


                                                       Q=80
|----14----|-7-----8-7-|-6-----------2-0-3-|-2----0--|------|
|-4--------|-----------|---7--8h10p8-------|---------|-4----|
|-4--------|-----------|-----------------0-|------3--|-4----|
|-4--------|-9----10-9-|-8-----------4-2---|-4----4--|-4----|
|-2--------|-----------|---9-10------------|------3--|-2----|
|----------|-----------|-------------------|---------|------|


            Q=90                       Q=100
|---------|--------------8-|---------|-----------|-----------|
|----3----|----4h7p4-3-4---|----3----|-----0--0--|-------0---|
|-0--4----|----------------|-0--4----|-----------|----0------|
|---------|-4--------------|---------|-----8--7--|-----------|
|---------|----------------|---------|-6s9----6--|-7---------|
|---------|----------------|---------|-----------|-----------|


  Q=120                 Q=130
|----------|----------|----0----|----------|-----0---------|------------|
|-------0--|-------0--|---------|----4-----|---------------|----4-------|
|----------|----------|----3----|----4-----|---------------|----4-------|
|----4-----|----4-----|---------|-------4--|-------0-------|-------4----|
|-5--------|-3--------|---------|-2--------|-0-2-3---3p2-0-|-2----------|
|----------|----------|-2-------|----------|---------------|------------|


  Q=140
|-----0---------|----------|---------------|-------------|--------------|
|---------------|----4-----|---0-1-3p1-0---|-0-----------|--------------|
|---------------|----4-----|-2-----------2-|---3---2-1---|-0------------|
|-------0-------|-------4--|---------------|-----4-----2-|---4-1-3-2----|
|-0-2-3---3p2-0-|-2--------|---------------|-------------|-----------3--|
|---------------|----------|---------------|-------------|--------------|


|----------|-----5---------|----------|-----5---------|-----------|
|-------4--|---------------|-------9--|-----6---------|-------9---|
|-------4--|-----5---------|-------9--|-----5---------|-------9---|
|----4-----|---------------|-------9--|---------------|-------9---|
|-2--------|-----5-7p5-----|----7-----|-----5-7p5-----|----7------|
|----------|-7-8-------8-7-|-0--------|-7-8-------8-7-|-0---------|


  Q=113                         Q=100                         Q=77
|-----0---------|-------------|-0-2-3---0-----|-------------|-----5-8-6h8p6-5--|
|-1-4---0-1---0-|---0---0---0-|-------3-----3-|-0-3---3-0-3-|-6-8--------------|
|-----------2---|-------------|-0---0-----5---|-----3-------|------------------|
|-2---2-----4---|-5---4---5---|-----0-----4---|-0---0---0---|------------------|
|-0-------------|-7---6---7---|-3---2-----0---|-------------|------------------|
|-----3---------|-------------|---------------|-3---2---3---|------------------|


                                                           Q=97
|-8-5-----5-8-|---------0-----|----------|---------------|-----------|
|-----8-7-----|---3h5p3---3-1-|-------4--|---------------|-------4---|
|-------------|-5---------0---|-------4--|---------------|-------4---|
|-------------|-4---------2---|----4-----|---0-2-4p2-0---|----4------|
|-------------|-----------1---|-2--------|-3-----------3-|-2---------|
|-------------|-5-------------|----------|---------------|-----------|


                  Q=113
|---------------|----------|------7-----7-----7-----7-----7-----7-|
|---------------|-------4--|----8-----8-----8-----8-----8-----8---|
|---------------|-------4--|--------------------7-----------------|
|---0-2-4p2-0---|----4-----|--------8-----9-----------8-----9-----|
|-3-----------3-|-2--------|-10-----------------------------------|
|---------------|----------|--------------------------------------|


|--------------------------------------|-----0-----0-----0-----0-----0-----0-|
|------7-----7-----7-----7-----7-----7-|-------------------------------------|
|----7-----7-----7-----7-----7-----7---|---3-----3-----3-----3-----3-----3---|
|--------------------7-----------------|-------4-----5-----2-----0-----------|
|--------8-----9-----------8-----9-----|-3-----------------------------3-----|
|-10-----------------------------------|-------------------------------------|


  Q=89        Q=69                        Q=80
|-^7----5-7-|-10----7h8p7-5-|-7------|----14----|-7----5-7--|
|-^0--------|---------------|-0------|----------|-----------|
|-----------|--7------------|--------|-8--------|-----------|
|-------7-9-|-------9-----7-|--------|-9--------|-9----7-9--|
|-----------|---------------|--------|-9--------|-----------|
|-^7--------|---------------|--------|-7--------|-----------|


                  Q=50      Q=80     Q=110
|-10----7h8p7-5-|-7----0--|--------|---------------------------|
|---------------|---------|-4------|---0---0----0---0---0----0-|
|--7------------|------3--|-4------|---------------------------|
|-------9-----7-|-9----4--|-4------|-----9---10---7---9--------|
|---------------|------3--|-2------|-7--------------------10---|
|---------------|---------|--------|---------------------------|


|---------------------------|---------------------------|
|---0---0----0---0---0----0-|---0---0----0---0---0----0-|
|---------------------------|---------------------------|
|-----9---10---7---9--------|-----9---10---7---9--------|
|-7--------------------10---|-7--------------------10---|
|---------------------------|---------------------------|


|----------------------------|
|---0---0----0---0---0----0--|
|----------------------------|
|-7------------7-------------|
|-----9---10-------9---10----|
|----------------------------|


|---------------------------|---------------------------|
|---0---0----0---0---0----0-|---0---0----0---0---0----0-|
|---------------------------|---------------------------|
|-----9---10---7---9--------|-----9---10---7---9--------|
|-7--------------------10---|-7--------------------10---|
|---------------------------|---------------------------|


|----------------------------|
|---0---0----0---0---0----0--|
|----------------------------|
|-----9---10---7---9---------|
|-7--------------------10----|
|----------------------------|


|---------------------------|
|---0---0----0---0----0---0-|
|---------------------------|
|-7-------------------------|
|-----9---10---7------------|
|------------------10---8---|


|--------------------------|---------------------------|
|---0---0----0---0---0---0-|---0---0----0---0---0---0--|
|--------------------------|---------------------------|
|-----9---10---7---9-------|-----9---10---7---9--------|
|----------------------9---|----------------------9----|
|-7------------------------|-7-------------------------|


|--------------------------|---------------------------|
|---0---0---0---0----0---0-|---0----0---0---0----0---0-|
|----------------------7---|---------------------------|
|---------7---9---10-------|-9---10---7---9------------|
|-----9--------------------|------------------10---9---|
|-7------------------------|---------------------------|


|---------------------------|
|---0---0----0---0---0---0--|
|---------------------------|
|-----9---10---7---9--------|
|----------------------9----|
|-7-------------------------|


|--------------------------|--------------------------|
|---0---0----0---0---0---0-|---0---0---0----0---0---0-|
|--------------------------|------------------7-------|
|-----9---10---7---9-------|-----7---9---10-------9---|
|----------------------9---|--------------------------|
|-7------------------------|-7------------------------|


|----------------------------|
|----0---0---0----0---0---0--|
|----------------------------|
|-10---7---9--------7--------|
|--------------10-------9----|
|----------------------------|


|-----7-----7------7-----7-----7------7-|
|---0-----0------0-----0-----0------0---|
|---------------------------------------|
|-------9-----10-----7-----9------------|
|-7------------------------------10-----|
|---------------------------------------|


|-----7-----7------7-----7-----7------7-|
|---0-----0------0-----0-----0------0---|
|---------------------------------------|
|-------9-----10-----7-----9------------|
|-7------------------------------10-----|
|---------------------------------------|


|-----7-----7------7-----7-----7------7-|
|---0-----0------0-----0-----0------0---|
|---------------------------------------|
|-------9-----10-----7-----9------------|
|-7------------------------------10-----|
|---------------------------------------|


|-----7-----7------7-----7-----7------7-|
|---0-----0------0-----0-----0------0---|
|---------------------------------------|
|-7------------------7------------------|
|-------9-----10-----------9-----10-----|
|---------------------------------------|


|-----7-----7------7-----7-----7------7-|
|---0-----0------0-----0-----0------0---|
|---------------------------------------|
|-------9-----10-----7-----9------------|
|-7------------------------------10-----|
|---------------------------------------|


|-----7-----7------7-----7-----7------7-|
|---0-----0------0-----0-----0------0---|
|---------------------------------------|
|-------9-----10-----7-----9------------|
|-7------------------------------10-----|
|---------------------------------------|


|-----7-----7------7-----7-----7------7-|
|---0-----0------0-----0-----0------0---|
|---------------------------------------|
|-------9-----10-----7-----9------------|
|-7------------------------------10-----|
|---------------------------------------|


|-----7-----7------7-----7------7-----7-|
|---0-----0------0-----0------0-----0---|
|---------------------------------------|
|-7-------------------------------------|
|-------9-----10-----7------------------|
|--------------------------10-----8-----|


|-^7--------------------------------|-^7--------------------------------|
|-^7---0-0----0-0---0-0---0-0---0-0-|-^7---0-0----0-0---0-0---0-0---0-0-|
|-^8--------------------------------|-^8--------------------------------|
|-^9-9-----10-----7-----9-----------|-^9-9-----10-----7-----9-----------|
|-^9--------------------------9-----|-^9--------------------------9-----|
|-^7--------------------------------|-^7--------------------------------|


|-^7--------------------------------|---------------------------------------|
|-^7---0-0---0-0---0-0----0-0---0-0-|---0-0----0-0---0-0---0-0----0-0---0-0-|
|-^8--------------------------7-----|---------------------------------------|
|-^9-------7-----9-----10-----------|-9-----10-----7-----9------------------|
|-^9-9------------------------------|--------------------------10-----9-----|
|-^7--------------------------------|---------------------------------------|


|-^7--------------------------------|-^7--------------------------------|
|-^7---0-0----0-0---0-0---0-0---0-0-|-^7---0-0----0-0---0-0---0-0---0-0-|
|-^8--------------------------------|-^8--------------------------------|
|-^9-9-----10-----7-----9-----------|-^9-9-----10-----7-----9-----------|
|-^9--------------------------9-----|-^9--------------------------9-----|
|-^7--------------------------------|-^7--------------------------------|


|-^7---------------------------------|---------------------------------------|
|-^7---0-0---0-0---0-0----0-0----0-0-|---0-0----0-0---0-0---0-0----0-0---0-0-|
|-^8---------------------------------|---------------------------------------|
|-^9-------7-----9-----10-----12-----|-9-----10-----7-----9------------9-----|
|-^9-9-------------------------------|--------------------------10-----------|
|-^7---------------------------------|---------------------------------------|


|-^12---------------------------------|-^12---------------------------------|
|-^-0---0-0----0-0---0-0---0-0----0-0-|-^-0---0-0----0-0---0-0---0-0----0-0-|
|-^-0---------------------------------|-^-0---------------------------------|
|-----9-----10-----7-----9------------|-----9-----10-----7-----9------------|
|------------------------------10-----|------------------------------10-----|
|-^-0---------------------------------|-^-0---------------------------------|


|-^12---------------------------------|--------------------------------------|
|-^-0---0-0----0-0---0-0---0-0----0-0-|---0-0---0-0---0-0---0-0---0-0----0-0-|
|-^-0---------------------------------|--------------------------------------|
|-----9-----10-----7-----9------------|-7-----------5-----7------------------|
|------------------------------10-----|-------9-----------------9-----10-----|
|-^-0---------------------------------|--------------------------------------|


|-^12------8------8-----8------8------8-|
|-^-8-----------------------------------|
|-^-9----9------9-----9------9------9---|
|-^-8-10-----12-----9-----10------------|
|-^10----------------------------10-----|
|-^-8-----------------------------------|


|-^12------8------8-----8------8------8-|
|-^-8-----------------------------------|
|-^-9----9------9-----9------9------9---|
|-^-8-10-----12-----9-----10------------|
|-^10----------------------------10-----|
|-^-8-----------------------------------|


|-^12------8------8-----8------8------8-|-----8-----8------8-----8-----8-----8-|
|-^-8-----------------------------------|---7-----7------7-----7-----7-----7---|
|-^-9----9------9-----9------9------9---|--------------------------------------|
|-^-8-10-----12-----9-----10------------|-7------------------7-----------------|
|-^10----------------------------10-----|-------9-----10-----------7-----9-----|
|-^-8-----------------------------------|--------------------------------------|


|-^7-----7------7-----7-----7-----7-|-^-8------8------8-----8------8------8-|
|-^7--------------------------------|-^-8-----------------------------------|
|-^8---8------8-----8-----8-----8---|-^-9----9------9-----9------9------9---|
|-^9-9-----10-----8-----9-----------|-^-8-10-----12-----9-----10------------|
|-^9--------------------------9-----|-^10----------------------------10-----|
|-^7--------------------------------|-^-8-----------------------------------|


|-^7-----7------7-----7-----7-----7-|-^-8------8------8-----8------8------8-|
|-^7--------------------------------|-^-8-----------------------------------|
|-^8---8------8-----8-----8-----8---|-^-9----9------9-----9------9------9---|
|-^9-9-----10-----8-----9-----------|-^-8-10-----12-----9-----10------------|
|-^9--------------------------9-----|-^10----------------------------10-----|
|-^7--------------------------------|-^-8-----------------------------------|


|-^7-----7------7-----7-----7------7-|-----7-----7------7-----7-----7------7-|
|-^7---0------0-----0-----0------0---|---0-----0------0-----0-----0------0---|
|-^8---------------------------------|---------------------------------------|
|-^9-9-----10-----7-----9------------|-7------------------7------------------|
|-^9--------------------------10-----|-------9-----10-----------9-----10-----|
|-^7---------------------------------|---------------------------------------|


|-----7-----7------7-----7-----7------7-|
|---0-----0------0-----0-----0------0---|
|---------------------------------------|
|-7------------------7------------------|
|-------9-----10-----------9-----10-----|
|---------------------------------------|


|-----7-----7------7-----7------7-----7-|
|---0-----0------0-----0------0-----0---|
|---------------------------------------|
|-7-------------------------------------|
|-------9-----10-----7------------------|
|--------------------------10-----8-----|


|---------------------------|---------------------------|
|---0---0----0---0---0----0-|---0---0----0---0---0----0-|
|---------------------------|---------------------------|
|-----9---10---7---9--------|-7------------7------------|
|----------------------10---|-----9---10-------9---10---|
|-7-------------------------|---------------------------|


|----------------------------|
|---0---0----0---0---0----0--|
|----------------------------|
|--------------7-------------|
|-7---9---10-------9---10----|
|----------------------------|


|---------------------------|---------------------------------------|
|---0---0----0---0----0---0-|-----7-----7-----7------7-----7-----7--|
|---------------------------|---8-----8-----8------8-----8-----8----|
|---------------------------|-------------9-----10-----8-----9------|
|-7---9---10---7------------|-------9-------------------------------|
|------------------10---8---|-7-------------------------------------|


|-----0------0------0-----0-----0------0-|
|---8------8------8-----8-----8------8---|
|---------------------7------------------|
|--------------10-----------9-----10-----|
|-------10-------------------------------|
|-7--------------------------------------|


|--------------------------------------|
|-----7-----7-----7------7-----7-----7-|
|---8-----8-----8------8-----8-----8---|
|-------------9-----10-----8-----9-----|
|-------9------------------------------|
|-7------------------------------------|


|-----0------0------0-----0-----0------0-|
|---8------8------8-----8-----8------8---|
|---------------------7------------------|
|--------------10-----------9-----10-----|
|-------10-------------------------------|
|-7--------------------------------------|


|---------------------------------------|
|-----7-----7-----7------7-----7------7-|
|---8-----8-----8------8-----8------8---|
|-------------9-----10-----8-----10-----|
|-------9-------------------------------|
|-7-------------------------------------|


|---------------------------------------|
|-----7------7-----7------7-----7-----7-|
|---8------8-----8------8-----8-----8---|
|-9-----10-----8-----10-----9-----------|
|---------------------------------9-----|
|---------------------------------------|


  Q=126         Q=150
|-------------|-------------11-14-|-19----|
|-----------7-|-12-------12-------|-------|
|---------8---|-------11----------|-------|
|-------9-----|----13-------------|-------|
|---6-9-------|-------------------|-------|
|-7-----------|-------------------|-------|


  Q=86                               Q=78
          1/4  3/4
|--------|----|-^0-------|---------|----------|-------|
|-0------|-0--|-^1-------|-^0------|-^1-------|-^0----|
|--------|----|-^0----2--|-^0------|----------|-^0----|
|-4------|----|-^2-------|-^0------|-^2----4--|-------|
|-6------|----|-^3-------|---------|-^0-------|-------|
|-7------|----|----------|-^3------|----------|-^0----|


  Q=71                Q=80         Q=69
|-1-------|-1----0--|-^0------|----------|----------------------------|
|-1----2--|-1-------|-^1------|-4--0-----|---0---0----0---0---0----0--|
|-2----3--|-2-------|-^2------|----0--2--|----------------------------|
|---------|---------|---------|-------4--|-----9---10---7---9---------|
|---------|---------|-^2------|----------|-7--------------------10----|
|---------|---------|---------|----------|----------------------------|


|---------------------------|---------------------------------|
|---0---0----0---0---0----0-|---------------------------------|
|---------------------------|-------0-----0-----0-----0-----0-|
|-----9---10---7---9--------|-2---2-----2-----2-----2-----2---|
|-7--------------------10---|---3-----1-----3-----1-----3-----|
|---------------------------|---------------------------------|


|-------------------------------------|-^0------|-^0------|-----*|
|-------------------------------------|-^0------|---------|-----*|
|-----0-----0-----0-----0-----0-----0-|-^0------|---------|-----*|
|---2-----2-----2-----2-----2-----2---|---------|-^2------|-----*|
|-1-----3-----1-----3-----1-----3-----|---------|---------|-----*|
|-------------------------------------|-^0------|-^0------|-----*|

www.vse-noti.narod.ru